Valens Ritchie - Ooh My Head Chords & Tabs

 

Ooh My Head Chords & Tabs

Valens Ritchie Chords & Tabs

Version: 1 Type: Tab 0 ratings
1 star 2 stars 3 stars 4 stars 5 stars
comments

Ooh My Head Tab

e|----------------------------------------------------|
B|----------------------------------------------------|
G|-2-2-4-4-2-2-4-4-2-2-4-4----------------------------|
D|-0-0-0-0-0-0-0-0-0-0-0-0---2-2-4-4-2-2-4-4-2-2-4-4--|
A|---------------------------0-0-0-0-0-0-0-0-0-0-0-0--|
E|----------------------------------------------------|

e|-------------------------------------|
B|-------------------------------------|
G|------------------2-2-4-4-2-2-4-4-2--|
D|------------------0-0-0-0-0-0-0-0-0--|
A|-2-2-4-4-2-2-4-4---------------------|
E|-0-0-0-0-0-0-0-0---------------------|
[ Tab from: http://www.guitartabs.cc/tabs/v/valens_ritchie/ooh_my_head_tab.html ]
e|-------------------------------------------|
B|-------------------------------------------|
G|-------------------------------------------|
D|--2-2-4-4-2-2-4-4-2-2-4-4-2-2-4-4-2-2-4-4--|
A|--0-0-0-0-0-0-0-0-0-0-0-0-0-0-0-0-0-0-0-0--|
E|-------------------------------------------|

e|----------------------------------------------------|
B|----------------------------------------------------|
G|-2-2-4-4-2-2-4-4-2-2-4-4----------------------------|
D|-0-0-0-0-0-0-0-0-0-0-0-0---2-2-4-4-2-2-4-4-2-2-4-4--|
A|---------------------------0-0-0-0-0-0-0-0-0-0-0-0--|
E|----------------------------------------------------|

e|-------------------------------------|
B|-------------------------------------|
G|------------------2-2-4-4-2-2-4-4-2--|
D|------------------0-0-0-0-0-0-0-0-0--|
A|-2-2-4-4-2-2-4-4---------------------|
E|-0-0-0-0-0-0-0-0---------------------|
[ Tab from: http://www.guitartabs.cc/tabs/v/valens_ritchie/ooh_my_head_tab.html ]
Comments