Valens Ritchie - Dooby Dooby Wah Chords & Tabs

 

Dooby Dooby Wah Chords & Tabs

Valens Ritchie Chords & Tabs

Version: 1 Type: Tab 0 ratings
1 star 2 stars 3 stars 4 stars 5 stars
comments

Dooby Dooby Wah Tab

e|------------------------------------|
B|------------------------------------|
G|------------------------------------|
D|------------------------------------|
A|-----------3-3-5-3-1-1-5-5-3-3-5-3--|
E|-2-2-2-5-5--------------------------|

e|---------------------------------------------------------------------|
B|---------------------------------------------------------------------|
G|---------------------------------------------------------------------|
D|-2-4-2-2-2-2--4-2-2-2-4-2-------------------2-4-2-2-2-2--4-2-2-2-4-2-|
A|-0-0-0-0-0-0--0-0-0-0-0-0-----2-4-2-2-2-2---0-0-0-0-0-0--0-0-0-0-0-0-|
E|------------------------------0-0-0-0-0-0----------------------------|
[ Tab from: http://www.guitartabs.cc/tabs/v/valens_ritchie/dooby_dooby_wah_tab.html ]
e|------------------------------------|
B|------------------------------------|
G|------------------------------------|
D|------------------------------------|
A|-----------3-3-5-3-1-1-5-5-3-3-5-3--|
E|-2-2-2-5-5--------------------------|

e|---------------------------------------------------------------------|
B|---------------------------------------------------------------------|
G|---------------------------------------------------------------------|
D|-2-4-2-2-2-2--4-2-2-2-4-2-------------------2-4-2-2-2-2--4-2-2-2-4-2-|
A|-0-0-0-0-0-0--0-0-0-0-0-0-----2-4-2-2-2-2---0-0-0-0-0-0--0-0-0-0-0-0-|
E|------------------------------0-0-0-0-0-0----------------------------|
[ Tab from: http://www.guitartabs.cc/tabs/v/valens_ritchie/dooby_dooby_wah_tab.html ]
e|------------------------------------|
B|------------------------------------|
G|------------------------------------|
D|------------------------------------|
A|-----------3-3-5-3-1-1-5-5-3-3-5-3--|
E|-2-2-2-5-5--------------------------|





Comments