Vai Steve - For The Love Of God Chords & Tabs

 

For The Love Of God Chords & Tabs

Vai Steve Chords & Tabs

Version: 1 Type: Chords 3 ratings
1 star 2 stars 3 stars 4 stars 5 stars
comments

For The Love Of God Chords

   
#----------------------------------PLEASE NOTE---------------------------------#
#This file is the author's own work and represents their interpretation of the #
#song. You may only use this file for private study, scholarship, or research. #
#------------------------------------------------------------------------------##

                               FOR THE LOVE OF GOD
                            As recorded by Steve Vai
                    (From the 1990 Album PASSION AND WARFARE)

Music by Steve Vai
Transcribed by 
                          ~~KAZU~~

Gtr I (B E A D G B E) - 'Untitled'
Gtr II (E A D G B E) - 'Untitled'
Gtr III (E A D G B E) - 'Untitled'

  Moderately Q=100
              Emadd9
 2/4         4/4
  Gtr I
    |-3--|
  A Q Q  Q     S  E.    +H.              +H         E  E E E
|-----------|-------------------------|------------12s10-7---|
|-------10--|-10s12----(12)-----------|-(12)---------------8-|
|-----7-----|-------------------------|----------------------|
|-7s9-------|-------------------------|----------------------|
|-----------|-------------------------|----------------------|
|-----------|-------------------------|----------------------|
|-----------|-------------------------|----------------------|
|
| Gtr II
|   H          E     E   E  E E E E E     E  E E E  E  E E E
|-----------|-------------------0-----|----------------0-----|
|-----------|-----------------0-------|-------------0----0---|
|-----------|---------------0-----0---|----------0---------0-|
|-----------|------------4----------4-|--------4-------------|
|-----------|--------2----------------|------2---------------|
|-----------|--0----------------------|---0------------------|


  Fmaj7+11
                                            |---3----|
   A  Q.      E  H          +Q.      +E   A Q   Q    Q
|------------------------|--------------------------------|
|-10s12------15p10-------|-(10)-----(10)-----------10----|
|------------------------|----------------------7---------|
|------------------------|----------------7s9-------------|
|------------------------|--------------------------------|
|------------------------|--------------------------------|
|------------------------|--------------------------------|
|
|     E  E E  E  E E E E     E  E E   E     E E   E    E
|------------------0-----|--------------------0-----------|
|----------------0---0---|------------------0-----0-------|
|-------------2--------2-|------------2----------------2--|
|----------3-------------|--------3-----------------------|
|--------3---------------|------3-------------------------|
|-----1------------------|---1----------------------------|


   S  E.    +H.              +H         E  E E E
|-------------------------|------------12s10-7---|
|-10s12----(12)-----------|-(12)---------------8-|
|-------------------------|----------------------|
|-------------------------|----------------------|
|-------------------------|----------------------|
|-------------------------|----------------------|
|-------------------------|----------------------|
|
|  E     E   E  E E E E E     E  E E E  E  E E E
|-------------------0-----|----------------0-----|
|-----------------0-------|-------------0----0---|
|---------------0-----0---|----------0---------0-|
|------------4----------4-|--------4-------------|
|--------2----------------|------2---------------|
|--0----------------------|---0------------------|


  Amadd9
                                            |---3----|
   A  Q.      E  H          +Q.      +E   A Q   Q    Q
|------------------------|--------------------------------|
|-10s12------15p10-------|-(10)-----(10)-----------10----|
|------------------------|----------------------7---------|
|------------------------|----------------7s9-------------|
|------------------------|--------------------------------|
|------------------------|--------------------------------|
|------------------------|--------------------------------|
|
|     E  E E  E  E E E E     E  E E   E     E E   E    E
|------------------5-----|--------------------5-----------|
|----------------5-------|------------------5-----5-------|
|-------------5------5---|------------5----------------5--|
|----------9-----------9-|--------9-----------------------|
|--------7---------------|------7-------------------------|
|-----5------------------|---5----------------------------|


  Emadd9
   S  E.    +H.              +H         E  E E E
|-------------------------|------------12s10-7---|
|-10s12----(12)-----------|-(12)---------------8-|
|-------------------------|----------------------|
|-------------------------|----------------------|
|-------------------------|----------------------|
|-------------------------|----------------------|
|-------------------------|----------------------|
|
|  E     E   E  E E E E E     E  E E E  E  E E E
|-------------------0-----|----------------0-----|
|-----------------0-------|-------------0----0---|
|---------------0-----0---|----------0---------0-|
|------------4----------4-|--------4-------------|
|--------2----------------|------2---------------|
|--0----------------------|---0------------------|


  Fmaj7+11
   A  Q.      E  H          +H         E  E E E
|------------------------|------------12s10-7-----|
|-10s12------15p10-------|-(10)---------------8---|
|------------------------|------------------------|
|------------------------|------------------------|
|------------------------|------------------------|
|------------------------|------------------------|
|------------------------|------------------------|
|
|     E  E E  E  E E E E     E  E E E  E  E E E
|----------------0-------|-------------0----------|
|-------------0----0-----|----------0-----0-------|
|----------0---------0---|--------0---------0-----|
|--------2-------------2-|------2-------------2---|
|-----3------------------|---3--------------------|
|------------------------|------------------------|


  Fmaj7+11
   S  E.    +E   S S  E  E  Q      +Q     E  E A Q   S S E
|-------------------------------|--------------------------|
|-10s12----(12)-12---12s10-10---|-(10)---10---5s8---7-----|
|-------------------------------|----------------------9-7-|
|-------------------------------|--------------------------|
|-------------------------------|--------------------------|
|-------------------------------|--------------------------|
|-------------------------------|--------------------------|
|
|  E     E   E   E    E  E  E E     E  E  E  E   E E E   E
|------------------------0------|------------------0-------|
|---------------------0-----0---|----------------0---0-----|
|----------------2------------2-|------------2-----------2-|
|------------3------------------|---------3----------------|
|--------3----------------------|------3-------------------|
|--1----------------------------|---1----------------------|
|
| Gtr III
|  W                                W
|-------------------------------|--------------------------|
|-------------------------------|--------------------------|
|-------------------------------|--------------------------|
|-------------------------------|--------------------------|
|-------------------------------|--------------------------|
|-------------------------------|--------------------------|


  Emadd9
                                             |-----3------|
  S E.   +H.                +Q    +Q     a   Q   Q        Q
|-------------------------|----------------------------------------|
|-------------------------|------------------------------10--------|
|-7s9----(9)--------------|-(9)---(9)-----------7-----------------|
|-------------------------|--------------7s==9---------------------|
|-------------------------|----------------------------------------|
|-------------------------|----------------------------------------|
|-------------------------|----------------------------------------|
|
| E    E  E  E E E   E  E    E  E  E   E     H
|----------------0--------|------------------0---------------------|
|--------------0----------|------------------0---------------------|
|------------0-------0----|------------0---------------------------|
|---------4-------------4-|--------4-------------------------------|
|------2------------------|-----2----------------------------------|
|-0-----------------------|--0-------------------------------------|
|
|                                                    |---3----|
| H            Q     Q       H              +Q      +E    E   E
|-------------------------|----------------------------------------|
|-------------------------|-------------()---()--------|
|---------------------|-------------()---()--------|
|---------------------|----------------------------------------|
|-------------------------|----------------------------------------|
|-------------------------|----------------------------------------|


  Emadd9
           ~~~~
   A      +W                   +H          A      +E   +E  E E
|---------------------------|-------------10b12==(10)r(10)-7---|
|-10b12==(10)---------------|-(10)r--------------------------8-|
|---------------------------|----------------------------------|
|---------------------------|----------------------------------|
|---------------------------|----------------------------------|
|---------------------------|----------------------------------|
|---------------------------|----------------------------------|
|
|          E  E E E E E E E     E   E E E          E    E  E E
|---------------------0-----|---------------------------0------|
|-------------------0-------|----------------------0-------0---|
|-----------------0-----0---|-----------0--------------------0-|
|---------------4---------4-|---------4------------------------|
|-------------2-------------|-------2--------------------------|
|----------0----------------|---0------------------------------|
|
|          Q    Q   H           W
|---------------------------|----------------------------------|
|---------------------------|----------------------------------|
|------------------------|----------------------------------|
|---------------------------|----------------------------------|
|---------------------------|----------------------------------|
|---------------------------|----------------------------------|


  Fmaj7+11
          ~~~~
                                                |---3----|
   A     +Q.      E  H          +Q.      +E   A Q   Q    Q
|----------------------------|-------------------------------|
|-10b12-(10)-----15p10-------|-(10)-----(10)-----------10---|
|----------------------------|----------------------7--------|
|----------------------------|----------------7s9------------|
|----------------------------|-------------------------------|
|----------------------------|-------------------------------|
|----------------------------|-------------------------------|
|
|         E  E E  E  E E E E     E  E E   E     E E   E    E
|----------------------0-----|--------------------0----------|
|--------------------0---0---|------------------0-----0------|
|-----------------2--------2-|------------2----------------2-|
|--------------3-------------|--------3----------------------|
|------------3---------------|------3------------------------|
|---------1------------------|---1---------------------------|
|
|         W                      W
|----------------------------|-------------------------------|
|----------------------------|-------------------------------|
|----------------------------|-------------------------------|
|----------------------------|-------------------------------|
|----------------------------|-------------------------------|
|----------------------------|-------------------------------|


  Emadd9
                                          PM
   a      +W                      +Q      e   a       +S   +S       +Q     +S  S   E
|------------------------------|-------------10pb12==(10)r(10)b12==(10)r==(10)-7------|
|-10b12==(10)------------------|-(10)r---------------------------------------------8--|
|------------------------------|------------------------------------------------------|
|------------------------------|------------------------------------------------------|
|------------------------------|----------7-------------------------------------------|
|------------------------------|----------7-------------------------------------------|
|------------------------------|------------------------------------------------------|
|
|          E  E E E E E   E  E     E   E  E            E             E  E   E      E
|---------------------0--------|----------------------------------------0-------------|
|-------------------0----------|-------------------------------------0------0---------|
|-----------------0-------0----|-----------------------0---------------------------0--|
|---------------4------------4-|----------4-------------------------------------------|
|-------------2----------------|-------2----------------------------------------------|
|----------0-------------------|---0--------------------------------------------------|
|
|          Q    H         Q        Q      Q                          Q      E      E
|------------------------------|------------------------------------------------------|
|------------------------------|-------------------------------------------|
|--------------------------|------------------------------------|
|--------------------------|-----------------------------------------------|
|------------------------------|------------------------------------------------------|
|------------------------------|------------------------------------------------------|


  Amadd9
                     1______/    |
          ~~~~                                         PM
                             |----3-----|
   A     +Q.      E  Q      +E   +E     E    Q.      S S  A      +E.    S  +E  E
|----------------10-----------------------|----------------------------------------|
|-10b12-(10)--------10-----(10)-(10)---15p|=10------10---10b12==(10)---10r(10)p8---|
|-----------------------------------------|----------------------------------------|
|-----------------------------------------|------------0---------------------------|
|-----------------------------------------|------------0---------------------------|
|-----------------------------------------|----------------------------------------|
|-----------------------------------------|----------------------------------------|
|
|         E  E E  E  E   E   E       E       E  E E  E            E  E      E  E
|------------------------5----------------|--------------------------5-------------|
|--------------------5--------------------|-----------------------5---------5------|
|-----------------5----------5------------|----------5-------------------------5---|
|--------------9---------------------9----|-------9--------------------------------|
|------------7----------------------------|-----7----------------------------------|
|---------5-------------------------------|--5-------------------------------------|
|
|         H          H                       W
|-----------------------------------------|----------------------------------------|
|-----------------------------------------|----------------------------------------|
|-----------------------------------------|----------------------------------------|
|--------------------------------------|----------------------------------------|
|-----------------------------------------|----------------------------------------|
|-----------------------------------------|----------------------------------------|


  Emadd9
                        <
                                   ~~~~~~~~~~      PM
    H             +E   +Q.        +Q     +E   +S   S  A      +E   +E   Q
|------------------------------|-------------------------------------------|
|-[10]b12========(10)-(10)-----|-(10)---(10)-(10)r---15b17==(15)r(15)-12---|
|------------------------------|-------------------------------------------|
|------------------------------|-------------------------------------------|
|------------------------------|-------------------0-----------------------|
|------------------------------|-------------------0-----------------------|
|------------------------------|-------------------------------------------|
|
|   E      E E E   E    E  E E     E  E   E    E              E    E   E E
|-----------------------0------|-----------------------------------0-------|
|------------------0-----------|------------------------------0--------0---|
|--------------0-----------0---|---------------0-------------------------0-|
|------------4---------------4-|----------4--------------------------------|
|----------2-------------------|------2------------------------------------|
|---0--------------------------|---0---------------------------------------|


  Cmaj7
                                                                      |
          ~~~~                        ~~~~
   A     +Q.       E   E   Q.        +Q.      +S  S  A     +E   E  E  E
|---------------------------------|--------------------------------------|
|----------------[15]s10-[10]-----|-(10)-----(10)s0-15b17-(15)-15-12-----|
|-14b16-(14)----------------------|---------------0------------------12--|
|---------------------------------|--------------------------------------|
|---------------------------------|--------------------------------------|
|---------------------------------|--------------------------------------|
|---------------------------------|--------------------------------------|
|
|         E  E E   E   E   E  E E     E  E E   E            E   E  E  E
|----------------------0----------|-------------------------0------------|
|------------------0-------0------|------------0----------------0--------|
|--------------0--------------0---|--------0-----------------------0-----|
|------------2------------------2-|------2----------------------------2--|
|---------3-----------------------|---3----------------------------------|
|---------------------------------|--------------------------------------|


  Fmaj7+11
                                         |-----3-----|
   A     +Q.      A      +E    E   +E   +E    E      E
|-------------------------------------------------------|
|-------------------------------------------------------|
|-14b16-(14)-----14b16==(14)-[14]r(14)-(14)-[14]---[14]-|
|-------------------------------------------------------|
|-------------------------------------------------------|
|-------------------------------------------------------|
|-------------------------------------------------------|
|
|         E  E E          E    E    E    E       E
|-----------------------------------0-------------------|
|------------------------------0---------0--------------|
|-------------------------2----------------------2------|
|--------------3----------------------------------------|
|------------3------------------------------------------|
|---------1---------------------------------------------|
|
| Gtr III
|         W
|-------------------------------------------------------|
|-------------------------------------------------------|
|-------------------------------------------------------|
|-------------------------------------------------------|
|-------------------------------------------------------|
|-------------------------------------------------------|


                              Emadd9
    ~~~~
    Q     +E  S S Q   S S E   a W                    +Q    Q     Q   E   a  E
|---------------------------|----------------------|---------------------------|
|---------------5s8p==7-----|----------------------|--------------------10s15--|
|-[14]---(14)s0---------9-7-|-7s9------------------|-(9)--------12--4/--------|
|-------------0-------------|----------------------|-------x---12------------|
|---------------------------|----------------------|-------x------------------|
|---------------------------|----------------------|---------------------------|
|---------------------------|----------------------|---------------------------|
|
|   E  E   E  E   E E E   E     E E E E E E   E  E    E  E E  E  H
|-------------------0-------|-------------0--------|-------------0-------------|
|-----------------0---0-----|-----------0----------|-------------0-------------|
|-------------2-----------2-|---------0-------0----|----------0----------------|
|----------3----------------|-------4------------4-|-------4-------------------|
|------3--------------------|-----2----------------|-----2---------------------|
|---1-----------------------|---0------------------|--0------------------------|
|
|   W                           H       Q     Q       H          H
|---------------------------|----------------------|---------------------------|
|---------------------------|----------------------|---------------------------|
|---------------------------|------------------|------------------------|
|---------------------------|------------------|------------------------|
|---------------------------|----------------------|---------------------------|
|---------------------------|----------------------|---------------------------|


  G
   E  E  E  E  E E E  E    A Q.    E Q.     E
|-----------------------|---------------------|
|-15s12-12s10-10s8-8S12-|-12s5s====3-3s====15-|
|-----------------------|---------------------|
|-----------------------|---------------------|
|-----------------------|---------------------|
|-----------------------|---------------------|
|-----------------------|---------------------|
|
|  E  E  E  E  E E E  E      E E E E E E E  E
|----------------3------|-------------------3-|
|--------------3---3----|----------------3----|
|-----------4---------4-|--------------4------|
|--------5--------------|----5-------5--------|
|-----5-----------------|------5---5----------|
|--3--------------------|--------3------------|


  Fmaj7sus2
    .5/      .5/
   +E      E  +E      E  +E  E E  E    +E.   S S S S S S E.   +E   E
|-----------------------------------|---------------------------------|
|-(15)s===12-(12)s===10-(10)s8-8s12-|-(12)------------------------15--|
|-----------------------------------|------------7s9s7s9s7----(7)-----|
|-----------------------------------|---------------------------------|
|-----------------------------------|---------------------------------|
|-----------------------------------|---------------------------------|
|-----------------------------------|---------------------------------|
|
|   E      E   E      E   E  E E  E     E  E   E   E   E    E  E   E
|----------------------------0------|------------------------------0--|
|-------------------------1----1----|--------------------------1------|
|---------------------0-----------0-|-----------------------0---------|
|--------------3--------------------|---3--------------3--------------|
|----------3------------------------|------3-------3------------------|
|---1-------------------------------|----------1----------------------|


  Em
   E  E  E  A  E  +Q    E  S S    Q   E  S S  E.   S E E
|------------------------------|-------------------------|
|-15s12s10-10s12-(12)-----10s8s|=12-----10s8s12s==15s5p3-|
|------------------------------|-------------------------|
|------------------------------|-------------------------|
|------------------------------|-------------------------|
|------------------------------|-------------------------|
|------------------------------|-------------------------|
|
|  E  E  E     E   E  E E  E      E E E  E    E E    E E
|---------------------0--------|-----------------------0-|
|------------------0----0------|---------------------0---|
|--------------0-----------0---|----------------0--------|
|--------2---------------------|--2-----------2----------|
|-----2------------------------|----2----2---------------|
|--0---------------------------|------0------------------|


  Dsus2                         D
                                 2.5    |    |
                                              PM
  A Q.    E  H        +H        +Q      +E.   S
|-------------------|---------------------------|
|-3s5p====3--3------|-(3)-------(3)-----(3)-----|
|-------------------|---------------------------|
|-------------------|-------------------------0-|
|-------------------|---------------------------|
|-------------------|---------------------------|
|-------------------|---------------------------|
|
|   E E E E +Q.   E    E  E E E  E    E  E  E
|---------5-(5)-----|---------------------------|
|---------5-(5)---5-|-----5---------------------|
|-------7-----------|--7------7-------2-----4---|
|-----7-------------|-------7----4-------5------|
|---5---------------|---------------------------|
|-------------------|---------------------------|


  G
   a      +H         +Q     +S   S  S  S    +S   S  S  S  +Q     E  S  S  E E
|----------------------------------------|------------------------------------|
|-15b17==(15)r======(15)---(15)-15s17s15-|-(15)-15s17s15-(15)---12h13p12s10s8-|
|----------------------------------------|------------------------------------|
|----------------------------------------|------------------------------------|
|----------------------------------------|------------------------------------|
|----------------------------------------|------------------------------------|
|----------------------------------------|------------------------------------|
|
|          E  E E E   E  E   E      E        E      E      E  E  E  E     E E
|------------------------3---------------|----------------------------------3-|
|---------------------3------3-----------|--------------------------------3---|
|-----------------4-----------------4----|--------------------------4---------|
|---------------5------------------------|---5-------------------5------------|
|-------------5--------------------------|----------5---------5---------------|
|----------3-----------------------------|-----------------3------------------|


  Fmaj7sus2
                               ~~~
   E  E  E  A  E  E  Q.       +H        +Q.      S S
|-13s12-10-10s12-12-8------|-(8)-------(8)--------0--|
|-13s12-10-10s12-12-8------|-(8)-------(8)s====12p0--|
|---------------------------|-------------------------|
|---------------------------|-------------------------|
|---------------------------|-------------------------|
|---------------------------|-------------------------|
|---------------------------|-------------------------|
|
|  E  E  E     E  E  E  E E    E  E E E  E  E E  E
|--------------------0------|--------------------0----|
|-----------------1-----1---|-----------------1-------|
|--------------0----------0-|---------------0---------|
|--------3------------------|--3---------3------------|
|-----3---------------------|-----3---3---------------|
|--1------------------------|-------1-----------------|


  Em
   ~~
                                                           |-3--|
   H        S   S  S  S  +Q           +S   S  S  S S T T E S  S S E E.   S
|-17-------14----------------------|---------------------------------------|
|--------------15------------------|---------------------------------------|
|-----------------14s11-(11tr12)---|-(11)----------------------------------|
|----------------------------------|------14p12----------------------------|
|----------------------------------|------------14s9p7h9p7h9h10p9s7s9s==17-|
|----------------------------------|---------------------------------------|
|----------------------------------|---------------------------------------|
|
|  E E E E  E      E      E      E     E      E    E     E E      E E E
|------------------0---------------|------------------------------0--------|
|----------(0)------------0--------|-----------------------0--------0------|
|--------0-----------------------0-|---------------------0------------0----|
|------2---------------------------|---------------2-----------------------|
|----2-----------------------------|----------2----------------------------|
|--0-------------------------------|---0-----------------------------------|


  Dsus2                                      D5
   |---3---|  |---3---|                                    |-3--|
   E  E    E  E  E    E  A  Q.      +E        +E  E  E E A Q Q  Q
|-19-17---15-------------------------------|-----------------------||
|------------19-17---15-19p15------(15)b20-|-(15)sx-----------10--||
|------------------------------------------|-----------------7-----||
|------------------------------------------|-------------7s9-------||
|------------------------------------------|-----------------------||
|------------------------------------------|---------0h3-----------||
|------------------------------------------|-----------------------||
|
|  E    E     E    E        E  E E   E         W
|------------------------------------------|---5-------------------||
|------------------5--------5--------------|---5-------------------||
|-------------7----------------7-----------|-----------------------||
|-------7------------------------7---------|-----------------------||
|--5---------------------------------5-----|-----------------------||
|------------------------------------------|-----------------------||


  Emadd9
                                                                                      ~~~~
                  |---3----|   |------3------|                                                             |---3----|
   a      +Q     +E   E    E   Q      Q      Q       +Q     S  a      +E     +S      +E   S  S  E  a      +S   +S   S
|-------------------------------------------------|-------------------------------------------------------------------|
|-10b12==(10)---(10)-10---10-[10]---[10]---[10]r==|=(10)s==15-15b17==(15)r==(15)b17-(15)-15-12-12---------------------|
|-------------------------------------------------|-----------------------------------------------14b16==(14)r(14)p12-|
|-------------------------------------------------|-------------------------------------------------------------------|
|-------------------------------------------------|-------------------------------------------------------------------|
|-------------------------------------------------|-------------------------------------------------------------------|
|-------------------------------------------------|-------------------------------------------------------------------|
|
|          E  E   E     E      E  E      E      E     E  E  E             E           E   E     E          E
|---------------------------------0---------------|---------------------------------------0---------------------------|
|------------------------------0------------------|-----------------------------------0---------0---------------------|
|-----------------------0----------------0--------|-----------------------0--------------------------------0----------|
|-----------------4-----------------------------4-|---------4---------------------------------------------------------|
|-------------2-----------------------------------|------2------------------------------------------------------------|
|----------0--------------------------------------|---0---------------------------------------------------------------|
|
| Gtr III
|          W                                         +H                               H
|--------!-0--------------------------------------|--(0)--------------------------------------------------------------|
|--------!-0--------------------------------------|--(0)--------------------------------------------------------------|
|--------!-0--------------------------------------|--(0)--------------------------------------------------------------|
|--------!-4--------------------------------------|--(4)--------------------------------------------------------------|
|-------------------------------------------------|-------------------------------------------------------------------|
|-------------------------------------------------|-------------------------------------------------------------------|


  Fmaj7+11
                      2.5           |      |
                                               |---3----|
   a     +Q.      E  +H             +Q.     E  Q   Q    Q
|--------------------------------|-----------------------------|
|----------------15-(15)---------|-(15)----------------10b15r==|
|-14b16-(14)---------------------|-----------------7-----------|
|--------------------------------|-------------9---------------|
|--------------------------------|----------x-----------------|
|--------------------------------|-----------------------------|
|--------------------------------|-----------------------------|
|
|         E  E E  E   E    E E E     E  E E E  E E   E       E
|--------------------------0-----|---------------0-------------|
|---------------------0------0---|-------------0-----0---------|
|-----------------2------------2-|----------2----------------2-|
|--------------3-----------------|--------3--------------------|
|------------3-------------------|------3----------------------|
|---------1----------------------|---1-------------------------|
|
|         W                          W
|--------------------------------|-----------------------------|
|--------------------------------|-----------------------------|
|--------------------------------|-----------------------------|
|--------------------------------|-----------------------------|
|--------------------------------|-----------------------------|
|--------------------------------|-----------------------------|


        T          T             T
                                                  |-------3-------|
   +E   E         +Q            +Q         A     +E       +E     +E
|------------------------------------------------------------------------|
|-(10)-10(22)b12-(10(22))b12---(10(22))---10b12-(10)b15==(10)r==(10)b12==|
|------------------------------------------------------------------------|
|------------------------------------------------------------------------|
|------------------------------------------------------------------------|
|------------------------------------------------------------------------|
|------------------------------------------------------------------------|
|
|   E   E          E         E   E      E         E           E
|---------------------------------------0--------------------------------|
|--------------------------------0---------------------------------------|
|----------------------------0--------------------0----------------------|
|------------------4------------------------------------------4----------|
|-------2----------------------------------------------------------------|
|---0--------------------------------------------------------------------|


  Emadd9
                        |--3--|
   +Q     E  a     +E   S  S  S  a      +E   S  S  a  +T   +T   S
|----------------------12-------------------15---------------------|
|-(10)r-----15b17-(15)----15p12----------------15------------------|
|-------------------------------14b16==(14)-------14-(14)r(14)p12--|
|------------------------------------------------------------------|
|------------------------------------------------------------------|
|------------------------------------------------------------------|
|------------------------------------------------------------------|
|
|   E   E E         E   E                E   E         E
|----------------------------------------0-------------------------|
|-----------------------0--------------------0---------------------|
|-------------------0----------------------------------0-----------|
|---------4--------------------------------------------------------|
|-------2----------------------------------------------------------|
|---0--------------------------------------------------------------|


  Amadd9
          ~~~~
                                |---3---|
   a     +H         S  S  S  S  E  E    E
|-----------------------------------------|
|---------------------12-13-12------------|
|-14b16-(14)-------15----------15-14---13-|
|-----------------------------------------|
|-----------------------------------------|
|-----------------------------------------|
|-----------------------------------------|
|
|         E  E E E  E     E     E    E
|-------------------------5---------------|
|-------------------5---------------------|
|----------------5--------------5---------|
|--------------9---------------------9----|
|------------7----------------------------|
|---------5-------------------------------|


                                          Emadd9
                                                                    7
                                                    ~~~~~~~~~~
   |---3---|
   e  E    E  E  E  S  S  S  S  e  S  S   S  E.    +Q     +E   S S +Q
|---------------------------------------|---------------------------------|
|------------13p12----------------------|---------------------------------|
|-12-14---15-------15p14p12----12-12h14-|---12----(12)---(12)-14p0-(0)----|
|---------------------------14----------|---------------------------------|
|---------------------------------------|---------------------------------|
|---------------------------------------|---------------------------------|
|---------------------------------------|---------------------------------|
|
|  E    E     E  E  E     E     E  E      E     E   E  E   E   E    E  E
|-------------------------5-------------|----------------------0----------|
|-------------------5-----------5-------|------------------0--------------|
|----------------5-----------------5----|--------------0------------0-----|
|-------------9-------------------------|-----------4------------------4--|
|-------7-------------------------------|-------2-------------------------|
|--5------------------------------------|-0-------------------------------|


  Emadd9                                                           Cmaj7
                                                            ~~~~~~~~~~
                  |--3--|
   a     +Q.      S  S  S  a      +S    a      +S   +E   S  E.      H        S  S  a  E  Q
|----------------12----------------------------------------------|---------------------------|
|-15b17-(15)--------15p12-15b17==(15)-(15)----(15)r(15)----------|---------------------------|
|--------------------------------------14b16==(14)r(14)-12-------|-12------------------------|
|----------------------------------------------------------14----|----------14-12------------|
|----------------------------------------------------------------|----------------14s12-10---|
|----------------------------------------------------------------|---------------------------|
|----------------------------------------------------------------|---------------------------|
|
|         E  E E  E                E                 E   E     E    E E E E  E        E  E E
|----------------------------------------------------0-----------|-----------0---------------|
|----------------------------------0---------------------0-------|--------0-----------0------|
|-----------------0--------------------------------------------0-|------0----------------0---|
|--------------4-------------------------------------------------|----2--------------------2-|
|------------2---------------------------------------------------|--3------------------------|
|---------0------------------------------------------------------|---------------------------|


                                                  Fmaj7+11
                                                   |---3---|                          |-3-|   |-3-|   |-3-|
   +Q     A  Q    S  S  S  A      +S   +E   +E     E  E    E  A      +E.    +S   S  S E   S   E   S   E   S
|-----------------------------------------------|----------------------------------------------------------------|
|-----------------------------------------------|----------------------------------------------------------------|
|--------19s14---12----14-12b14==(12)-(12)r(12)-|-12------14-12b14==(12)r==(12)-12-14---[16]s14-[16]s14-[16]s====|
|-------------------14--------------------------|----14----------------------------------------------------------|
|-(10)------------------------------------------|----------------------------------------------------------------|
|-----------------------------------------------|----------------------------------------------------------------|
|-----------------------------------------------|----------------------------------------------------------------|
|
|   E  E     E E  E     E               E    E     E    E             E  E       E    E       E       E
|-----------------0-----------------------------|-------------------------------------0--------------------------|
|--------------0--------0-----------------------|--------------------------------0------------0------------------|
|------------0--------------------------0-------|------------------------2----------------------------2----------|
|------2-------------------------------------2--|---------------------3------------------------------------------|
|---3-------------------------------------------|-------3--------------------------------------------------------|
|-----------------------------------------------|--1-------------------------------------------------------------|


  Fmaj7+11                                                   Emadd9
                                |-----------6------------|                      |3-|  |3-|
   S  S  S  S   a       +Q     +E   S  E  S  a  E  S  E  S    a  H        S  S  E  S  E  S  E
|----------------------------------------------------------|----------------------------------|
|----------------------------------------------------------|----------------------------------|
|-14p12----14-[12]b14==(12)r==(12)s11----------------------|----------------------------------|
|-------14----------------------------14p12----------------|-12s14-------12-------------------|
|-------------------------------------------14s12p10-------|----------------14-12-------------|
|----------------------------------------------------12p10-|----------------------14s12-10-12-|
|----------------------------------------------------------|----------------------------------|
|
|  E     E               E  E   E      E        E     E          E E E E  E     E     E     E
|--------------------------------------0-------------------|--------------------0-------------|
|-------------------------------0---------------0----------|--------------0-------------------|
|---------------------------2-------------------------2----|-----------0--------------0-------|
|------------------------3---------------------------------|---------4----------------------4-|
|--------3-------------------------------------------------|-------2--------------------------|
|--1-------------------------------------------------------|-----0----------------------------|


               2.5   |
   ~~~                                                           ~~~~~~~~~~~
   Q.      E   Q     +E  E   S  a      +E.    +E   S  S S  E.    Q      +H         +Q     E  +S   S
|--------------------------|---17b19==(17)---(17)-17-17---17----17---|-(17)-------(17)---17r(17)p15----|
|-------------(0)----(0)---|-----------------------------------------|---------------------------------|
|--------------0-----(0)---|-----------------------------------------|---------------------------------|
|--------------------------|-----------------------------------------|---------------------------------|
|---------12--------------|-----------------------------------------|---------------------------------|
|-12-----------------------|-----------------------------------------|---------------------------------|
|--------------------------|-----------------------------------------|---------------------------------|
|
|  E  E E  E   H             E             E   E   E    E     E  E E     E  E E E   E  E  E   E
|--------------0-----------|----------------------------------0------|-----------------0---------------|
|--------------0-----------|----------------------------0------------|--------------0-----0------------|
|----------0---------------|-----------------------0-------------0---|----------0-------------0--------|
|-------4------------------|-------------------4-------------------4-|--------4------------------------|
|-----2--------------------|---------------2-------------------------|------2--------------------------|
|--0-----------------------|-0---------------------------------------|---0-----------------------------|


    Fmaj7+11
  S  A      +S       +E   +E   +S   A  +S   E  E  Q
|---19b21==(19)b22==(19)-(19)-(19)-19r(19)p17---------|
|---------------------------------------------20-20---|
|-----------------------------------------------------|
|-----------------------------------------------------|
|-----------------------------------------------------|
|-----------------------------------------------------|
|-----------------------------------------------------|
|
| E                   E    E    E           E  E  E E
|----------------------------------------------0------|
|-------------------------------------------0-----0---|
|-------------------------------2-------------------2-|
|--------------------------3--------------------------|
|---------------------3-------------------------------|
|-1---------------------------------------------------|


                               Emadd9
   +H         +Q     E  S  S    H        +Q     E  S  S
|----------------------------|---------------------------|
|-(20)-------(20)---15-15h20-|-19-------(19)---19-17s15--|
|----------------------------|---------------------------|
|----------------------------|---------------------------|
|----------------------------|---------------------------|
|----------------------------|---------------------------|
|----------------------------|---------------------------|
|
|   E  E E E   E  E  E  E       E E E E   E  E  E  E
|-----------------0----------|---------------0-----------|
|--------------0-----0-------|------------0--------------|
|----------2------------2----|--------0---------0--------|
|--------3-------------------|------4--------------4-----|
|------3---------------------|----2----------------------|
|---1------------------------|--0------------------------|


                                   Amadd9
                                                                    1__________
           ~~~~~~~                               ~~~~~
                                                                 |----3-----|
   S  E    S  +Q     +Q     E  E    E.   S      +Q     +E.    S  E  E      +E
|--------------------------------|---------------------------------------------|
|-15s17---17-(17)---(17)s==15s12-|-12s==14b15==(14)r==(14)s==12-12-------------|
|--------------------------------|---------------------------------14-----(14)-|
|--------------------------------|---------------------------------------------|
|--------------------------------|---------------------------------------------|
|--------------------------------|---------------------------------------------|
|--------------------------------|---------------------------------------------|
|
|  E    E      E  E   E  E  E  E    E E          E  E   E  E     E      E
|------------------------0-------|-------------------------5-------------------|
|---------------------0-----0----|----------------------5----------------------|
|-----------------0------------0-|------------------5------------5-------------|
|--------------4-----------------|---------------9----------------------9------|
|-------2------------------------|----7----------------------------------------|
|--0-----------------------------|--5------------------------------------------|


    /
    |----3-----|  |---3---|
   +E   +E     E  E  E    E  E  E  E  E
|----------------10-12---14-15-17S19s22-|
|-------------12------------------------|
|-(14)-(14)-----------------------------|
|---------------------------------------|
|---------------------------------------|
|---------------------------------------|
|---------------------------------------|
|
|   E       E     E    E     E  E  E  E
|-------------------------------5-------|
|----------------------------5-----5----|
|----------------------5--------------5-|
|-----------------9---------------------|
|-----------7---------------------------|
|---5-----------------------------------|


  Emadd9
             ~~~~
                               |-3-|
   H        +Q    Q      S E   T T T  a      +Q     +Q     +E   E
|-22-------(22)--------|-------------17b19==(17)---(17)r==(17)p15-|
|----------------------|-----------x------------------------------|
|-----------------x---|-0-------x--------------------------------|
|-----------------x---|-------x----------------------------------|
|----------------------|------------------------------------------|
|----------------------|------------------------------------------|
|----------------------|------------------------------------------|
|
|  E E E E   E  E E  E   E   E                E  E   E  E   E   E
|---------------0------|--------------------------------0---------|
|------------0---------|-----------------------------0------0-----|
|--------0--------0----|-------------------------0--------------0-|
|------4-------------4-|----------------------4-------------------|
|----2-----------------|-----2------------------------------------|
|--0-------------------|-0----------------------------------------|


  Cmaj7
   .5/   .5/   .5/   .5/   .5/   .5/   .5/
                                                             ~~~~~~~~~~~~~~~~~~~~~~~~~~~~~~~~~~~~~~~~~~~~~~~
   S      +S      +S      +S      +S      +S      +S      S  H          S  E.    +Q     S  E.    +E   S  S
|-17-----(17)----(17)----(17)----(17)----(17)----(17)p===15----------|--------------------------------------|
|-----------------------------------------------------------17-------|-15h17----(17)---15h17----(17)-15h17p=|
|--------------------------------------------------------------------|--------------------------------------|
|--------------------------------------------------------------------|--------------------------------------|
|--------------------------------------------------------------------|--------------------------------------|
|--------------------------------------------------------------------|--------------------------------------|
|--------------------------------------------------------------------|--------------------------------------|
|
|  E               E               E               E         E E E E    E     E   E  E  E     E   E   E
|------------------------------------------------------------0-------|------------------0-------------------|
|--------------------------------------------------0-----------0-----|---------------0--------0-------------|
|----------------------------------0-----------------------------0---|------------0---------------0---------|
|------------------2-----------------------------------------------2-|--------2-----------------------2-----|
|--3-----------------------------------------------------------------|--3-----------------------------------|
|--------------------------------------------------------------------|--------------------------------------|

[ Tab from: http://www.guitartabs.cc/tabs/v/vai_steve/for_the_love_of_god_crd.html ]
  Fmaj7+11
                                                     |  |
   ~~~~~~~~~~~~                         ~~        ~~~~~~~~~~~~
                                                        |---3---|
   E  S  S  E.   S   S E   S A  E  E    Q    E E  E  E  E  E    E
|------------------------------------|----------------------------|
|-15---------------------------------|--------------------12h==15-|
|----16-14-12----------------9s14s12-|-14---12---14-12-14---------|
|----------------0-/17---------------|----------------------------|
|------------------------------------|----------------------------|
|------------------------------------|----------------------------|
|------------------------------------|----------------------------|
|
|  E  E     E  E     E   E      E  E    E E  E E  E  E  E    E
|------------------------0-----------|---------------0------------|
|--------------------0----------0----|------------0-----0---------|
|--------------2-------------------2-|---------2-------------2----|
|-----------3------------------------|-------3--------------------|
|-----3------------------------------|----3-----------------------|
|--1---------------------------------|--1-------------------------|


  Emadd9
         TP TP TP TP TP TP TP   TP TP
   S  S  E  E  E  E  E  E  E    E  E  E  A     +E   A     +Q    A     +E.    S
|----------------12-14-15-17-|-19-22-24-24b26-(24)-24b26-(24)--24b26-(24)------|
|----------12-15-------------|---------------------------------------------/19--|
|-12-12-14-------------------|--------------------------------------------------|
|----------------------------|--------------------------------------------------|
|----------------------------|--------------------------------------------------|
|----------------------------|--------------------------------------------------|
|----------------------------|--------------------------------------------------|
|
|  E     E  E  E  E  E  E  E    E  E  E         E          H
|--------------------0-------|-----------------------------0--------------------|
|-----------------0----------|-----------------------------0--------------------|
|--------------0--------0----|------------------0-------------------------------|
|-----------4--------------4-|--------4-----------------------------------------|
|--------2-------------------|-----2--------------------------------------------|
|--0-------------------------|--0-----------------------------------------------|


                  |--3--|
   s  T  T  T  T  T  T  T  T  T  T  T  T  T  T  T  T  T  T  T  T  T  T  T  a  T  T  T  T  T  T  T  T
|-14-14-14-14h19p14h19p14-14-14-14-------------14-14h19p14-14-14h19p14-14-14h19p14-14-------------14-|
|----------------------------------15h19p15p14----------------------------------------15h19p15-14----|
|----------------------------------------------------------------------------------------------------|
|----------------------------------------------------------------------------------------------------|
|----------------------------------------------------------------------------------------------------|
|----------------------------------------------------------------------------------------------------|
|----------------------------------------------------------------------------------------------------|
|
|  E        E              E           E           E           E              E           E
|--------------------------------------------------------------0-------------------------------------|
|--------------------------------------------------0-------------------------------------------------|
|--------------------------------------0--------------------------------------0----------------------|
|--------------------------4--------------------------------------------------------------4----------|
|-----------2----------------------------------------------------------------------------------------|
|--0-------------------------------------------------------------------------------------------------|


                                    |--3--|
   S  T  T  T  T  T  T  T  T  T  T  S  S  S  T  T  T  T  T  T  T  T  T  T  T  T  E
|-------14h19p14----14h19p14h19p14-19p14----------14h19p14----------19p14--------------|
|----19----------19----------------------17-15h17----------17-15-17-------17-15--------|
|-18--x-------------------------------------------------------------------------12/----|
|--------------------------------------------------------------------------------------|
|--------------------------------------------------------------------------------------|
|--------------------------------------------------------------------------------------|
|--------------------------------------------------------------------------------------|
|
|  E        E           E           E        E           E           E           E
|--------------------------------------------------------0-----------------------------|
|--------------------------------------------0-----------------------0-----------------|
|-----------------------------------0--------------------------------------------0-----|
|-----------------------4--------------------------------------------------------------|
|-----------2--------------------------------------------------------------------------|
|--0-----------------------------------------------------------------------------------|


  Fmaj7+11
   S  S  T  T  T  T  T  T  T  T  T  T  T  T  T  T  T  T  T  T  T  T  T  T  T  T  S.  T
|-13----------13-19p13----------13-19-13----------13-19p13----------13-19p13-----------|
|----17-13-17----------17-13h17----------17-13h17----------17-13h17----------17-13--17-|
|--------------------------------------------------------------------------------------|
|--------------------------------------------------------------------------------------|
|--------------------------------------------------------------------------------------|
|--------------------------------------------------------------------------------------|
|--------------------------------------------------------------------------------------|
|
|  E     E           E           E           E           E           E           E
|--------------------------------------------------------0-----------------------------|
|--------------------------------------------0-----------------------0-----------------|
|--------------------------------2-----------------------------------------------2-----|
|--------------------3-----------------------------------------------------------------|
|--------3-----------------------------------------------------------------------------|
|--1-----------------------------------------------------------------------------------|


   T  T  T  T  T  T  T  T  T  T  T  T  +T   T  T  T  T  T  T  T  T  T  T  T  T  T  T  T  E
|-13h19p13-------------------13h19p13-(13)----------13h19p13----------------13h19p13---------|
|----------17-13h17p13----17---------------17-13h17----------17-13-------17----------17p13/--|
|----------------------17------------------------------------------16-16---------------------|
|--------------------------------------------------------------------------------------------|
|--------------------------------------------------------------------------------------------|
|--------------------------------------------------------------------------------------------|
|--------------------------------------------------------------------------------------------|
|
|  E           E           E            E            E           E           E           E
|----------------------------------------------------------------0---------------------------|
|----------------------------------------------------0-----------------------0---------------|
|---------------------------------------2------------------------------------------------2---|
|--------------------------3-----------------------------------------------------------------|
|--------------3-----------------------------------------------------------------------------|
|--1-----------------------------------------------------------------------------------------|


  Emadd9
   T  T  T  T  T  T  T  T  T  T  T  T  T  T  T  T  T  T  T  T  T  T  T  T  T  T  T  T  T  T  T  T
|-20p17----------17-19-17----------17-22p17----------17-19p17----17-22p17----------17h19p17----17h==|
|-------20-17h20----------20-17h20----------20-17h20----------20----------20-17-20----------22------|
|---------------------------------------------------------------------------------------------------|
|---------------------------------------------------------------------------------------------------|
|---------------------------------------------------------------------------------------------------|
|---------------------------------------------------------------------------------------------------|
|---------------------------------------------------------------------------------------------------|
|
|  E           E           E           E           E           E           E           E
|--------------------------------------------------------------0------------------------------------|
|--------------------------------------------------0------------------------------------------------|
|--------------------------------------0-----------------------------------0------------------------|
|--------------------------4-----------------------------------------------------------4------------|
|--------------2------------------------------------------------------------------------------------|
|--0------------------------------------------------------------------------------------------------|


                                                                           |--3--|  |--3--|
   T  T  T  T  T  T  T  T  T  T  T  T  T  T  T  T  T  T  T  T  T  T  T  T  S  S  S  S  S  S
|-22p17----------17-19p17-15p12-15p12-------------------------------------------------15-12-|
|-------20-17h20----------------------12h15p12h15p12----------------------12h15p12-12-------|
|----------------------------------------------------14-12h14p12----12h14-------------------|
|----------------------------------------------------------------14-------------------------|
|-------------------------------------------------------------------------------------------|
|-------------------------------------------------------------------------------------------|
|-------------------------------------------------------------------------------------------|
|
|  E           E           E           E           E           E           E        E
|--------------------------------------------------------------0----------------------------|
|--------------------------------------------------0-----------------------0----------------|
|--------------------------------------0--------------------------------------------0-------|
|--------------------------4----------------------------------------------------------------|
|--------------2----------------------------------------------------------------------------|
|--0----------------------------------------------------------------------------------------|


  Amadd9
                                 ~~~~~                ~~~~~                ~~~~~
   |--3--|
   S  S  S  T  T  T  T  T  T  T  T  S  T  T  T  T  T  T  S  T  T  T  T  T  T  S  T  T
|-17p15----17-17p15----22p17----------------22p17----------------22p17-----------------|
|-------17----------17-------20-17-22-20-17-------20-17-22-20-17-------20-17-22-20-17--|
|--------------------------------------------------------------------------------------|
|--------------------------------------------------------------------------------------|
|--------------------------------------------------------------------------------------|
|--------------------------------------------------------------------------------------|
|--------------------------------------------------------------------------------------|
|
|  E        E           E           E        E           E        E           E
|--------------------------------------------------------5-----------------------------|
|--------------------------------------------5-----------------------------------------|
|-----------------------------------5-----------------------------5--------------------|
|-----------------------9-----------------------------------------------------9--------|
|-----------7--------------------------------------------------------------------------|
|--5-----------------------------------------------------------------------------------|


  Amadd9
         ~~~~~~          ~~~~~~          ~~~~~~          ~~
   T  T  S  S.  T  T  T  S  S.  T  T  T  S  S.  T  S  S  E
|-22p17------------------------17--------------17----------|
|-------22-22--22-20p17-22-22-----20p17-22-22-----20-17-22-|
|----------------------------------------------------------|
|----------------------------------------------------------|
|----------------------------------------------------------|
|----------------------------------------------------------|
|----------------------------------------------------------|
|
|  E        E      E        E      E        E      E     E
|-------------------------------------------5--------------|
|----------------------------------5---------------5-------|
|---------------------------5----------------------------5-|
|------------------9---------------------------------------|
|-----------7----------------------------------------------|
|--5-------------------------------------------------------|


  Emadd9
                                    ~~~~
       |--3--|  |--3--|                 |--3--|
   E   S  S  S  S  S  S S S  a     +E   S  S  S  S  S  S  S
|-22-12-------------------------------12---------------------|
|--------15-12--------------15b17-(15)----15p12---------------|
|--------------14-12------0---------------------14p12---------|
|--------------------14-------------------------------14p12---|
|-------------------------------------------------------------|
|-------------------------------------------------------------|
|-------------------------------------------------------------|
|
|  E   E        E       E           E   E        E     E
|---------------------------------------0---------------------|
|-----------------------------------0-------------------------|
|-----------------------0------------------------0------------|
|---------------4--------------------------------------4------|
|------2------------------------------------------------------|
|--0----------------------------------------------------------|


  Emadd9
   ~~                          ~~~
   Q    T  S  T  T  T  S   E   Q    E
|-------------------------------------|
|-------------------------------------|
|-12----------------------------------|
|------14p12--------------------------|
|------------14s12p10-----------------|
|---------------------12-[10]-10s==12-|
|-------------------------------------|
|
|  E E  E        E         E   E E  E
|------------------------------0------|
|--------------------------0-----0----|
|----------------0------------------0-|
|-------4-----------------------------|
|----2--------------------------------|
|--0----------------------------------|


  Cmaj7
                                       |--3--|  |--3--|
   T  T  T  T  T  T  T  T  T  T  T  T  S  S  S  S  S  S  T  T  T  T  T  T  T  T  T  T  T   T
|---------------------------------------------------------------------------------------------|
|-12h13p12----12----------12h14p12----12-------------12h14p12----12----------------12h14------|
|----------15----15p14-15----------15----15-14-12h14----------15----15-14-12-14h15-------h12--|
|---------------------------------------------------------------------------------------------|
|---------------------------------------------------------------------------------------------|
|---------------------------------------------------------------------------------------------|
|---------------------------------------------------------------------------------------------|
|
|  E           E           E           E        E        E           E           E
|-----------------------------------------------0---------------------------------------------|
|--------------------------------------0-----------------0------------------------------------|
|--------------------------0-----------------------------------------0------------------------|
|--------------2-----------------------------------------------------------------2------------|
|--3------------------------------------------------------------------------------------------|
|---------------------------------------------------------------------------------------------|


  Cmaj7
                                                              ~~~~~
   |--3--|              |-------3-------|               |--3--|
   S  S  S  T  T  T  T  S  a      +S   +S   T  T  T  T  S  S  S  E  T  T  T  T  T  T  T  T
|------------------------------------------------------------------------------------------|
|----12----12h13p12----12---------------------12h14p12----12-------12----12h13p12----------|
|-15----15----------15----14b16==(14)r(14)-15----------15----15-14----15----------15-16-14-|
|------------------------------------------------------------------------------------------|
|------------------------------------------------------------------------------------------|
|------------------------------------------------------------------------------------------|
|------------------------------------------------------------------------------------------|
|
|  E        E           E                   E           E        E  E           E
|-------------------------------------------------------0----------------------------------|
|-------------------------------------------0--------------------0-------------------------|
|-----------------------0-------------------------------------------0----------------------|
|-----------2-------------------------------------------------------------------2----------|
|--3---------------------------------------------------------------------------------------|
|------------------------------------------------------------------------------------------|


  Fmaj7+11
   +s   T  T  S  T  T  S  T  T  S  T  T  S  T  T  S  T  T  S  T  T  S  T  T
|-----------------------------------------------------------------------------|
|-----------------------------------------------------------------------------|
|-(14)-16p15-14-16p15-14-16-15-14-16-15-14-16-15-14-16-15-14-16-15-14-16-15---|
|-----------------------------------------------------------------------------|
|-----------------------------------------------------------------------------|
|-----------------------------------------------------------------------------|
|-----------------------------------------------------------------------------|
|
|   E         E        E        E        E        E        E        E
|-------------------------------------------------0---------------------------|
|----------------------------------------0-----------------0------------------|
|-------------------------------2-----------------------------------2---------|
|----------------------3------------------------------------------------------|
|-------------3---------------------------------------------------------------|
|---1-------------------------------------------------------------------------|


  Fmaj7+11
   S  T  T  S  T  T  S  T  T  S  T  T  S  T  T  S  T  T  S  T  T  S  T  T
|-------------------------------------------------------------------------|
|-------------------------------------------------------------------------|
|-14-16-15-14-16-15-14-16-15-14-16-15-14-16-15-14-16-15-14-16-15-14-16-15-|
|-------------------------------------------------------------------------|
|-------------------------------------------------------------------------|
|-------------------------------------------------------------------------|
|-------------------------------------------------------------------------|
|
|  E        E        E        E        E        E        E        E
|-----------------------------------------------0-------------------------|
|--------------------------------------0-----------------0----------------|
|-----------------------------2-----------------------------------2-------|
|--------------------3----------------------------------------------------|
|-----------3-------------------------------------------------------------|
|--1----------------------------------------------------------------------|


  Emadd9
   S  T  T  S  T  T  S  T  T  S  T  T  S  T  T  S  T  T  S  T  T  S  T  T
|--------------------------------------------------------------------------|
|--------------------------------------------------------------------------|
|-14-16-15-14-16-15-14-16-15-14-16-15-14-16-15-14-16-15-14-16-15-14-16-15--|
|--------------------------------------------------------------------------|
|--------------------------------------------------------------------------|
|--------------------------------------------------------------------------|
|--------------------------------------------------------------------------|
|
|  E        E        E        E        E        E        E        E
|-----------------------------------------------0--------------------------|
|--------------------------------------0-----------------------------------|
|-----------------------------0--------------------------0-----------------|
|--------------------4--------------------------------------------4--------|
|-----------2--------------------------------------------------------------|
|--0-----------------------------------------------------------------------|


        Emadd9                   G
          ~~~~
   a     +H        Q   E  S  S    E  S  S E  S  S  E  S  S E  S  S
|------------------------------|-----------------------------------|
|-15b17-(15)-------------12h15-|-10-10-10s8-12h15-10-10-10s8-12h15-|
|------------------------------|-----------------------------------|
|------------------x----------|-----------------------------------|
|----------------------5-------|-----------------------------------|
|------------------------------|-----------------------------------|
|------------------------------|-----------------------------------|
|
|         E  E E E H              E  E    E  E     E  E    E  E
|------------------0-----------|----------------------3------------|
|------------------0-----------|-------------------3-------3-------|
|----------------0-------------|-------------4----------------4----|
|--------------4---------------|----------5------------------------|
|------------2-----------------|-----5-----------------------------|
|---------0--------------------|--3--------------------------------|


    E  S  S E  S  S   E  S  S E  S  S
|-------------------------------------|
|-/12-12-12s8-12h15-/12-12-12s8-12h15-|
|-------------------------------------|
|-------------------------------------|
|-------------------------------------|
|-------------------------------------|
|-------------------------------------|
|
|   E  E    E  E      E  E    E  E
|--------------------------------3----|
|-----------------------------3-------|
|------------------------4------------|
|---5-----------------5---------------|
|------5-------5----------------------|
|-----------3-------------------------|


  Fmaj7sus2
   E  S  S E  S  S  E  S  S E  S  S     E  S  S E  S  S  E  S  S E  S  S
|-----------------------------------|------------------------------------|
|-15-15-15s8-12h15-15-15-15s8-12-15-|-/17-17-17s8-12h15-17-17-17s8-12h15-|
|-----------------------------------|------------------------------------|
|-----------------------------------|------------------------------------|
|-----------------------------------|------------------------------------|
|-----------------------------------|------------------------------------|
|-----------------------------------|------------------------------------|
|
|  E  E    E  E     E  E    E  E        E  E    E  E     E  E    E  E
|----------------------0------------|-------------------------------0----|
|-------------------1-------1-------|----------------------------1-------|
|-------------0----------------0----|-----------------------0------------|
|----------3------------------------|---3----------------3---------------|
|-----3-----------------------------|------3-------3---------------------|
|--1--------------------------------|-----------1------------------------|


  Em
    E  S  S E  S  S  E  S  S E  S  S
|-------------------------------------|
|-/19-19-19s7-12h15-19-19-19s7-12h15--|
|-------------------------------------|
|-------------------------------------|
|-------------------------------------|
|-------------------------------------|
|-------------------------------------|
|
|   E  E    E  E     E  E    E  E
|-----------------------0-------------|
|--------------------0-------0--------|
|--------------0----------------0-----|
|-----------2-------------------------|
|------2------------------------------|
|---0---------------------------------|


  Em
       |--3--|                      |--3--|
    S  T  T  T  S  S E a a S  S  S  T  T  T  S  S E a a S  S
|-/22-19-------------------7-10S22-19-------------------7-10S|
|--------20-------20S8---8------------20-------20S8---8------|
|-----------21---------9-----------------21---------9--------|
|--------------19---------------------------19---------------|
|------------------------------------------------------------|
|------------------------------------------------------------|
|------------------------------------------------------------|
|
|   E           E    E     E     E           E    E     E
|-------------------------------------------------------0----|
|-------------------------------------------------0----------|
|--------------------------------------------0---------------|
|---2----------------------------2---------------------------|
|---------------2----------2---------------------------------|
|--------------------0---------------------------------------|


  Dsus2
      |--3--|                       |--3--|
   S  T  T  T  S  S E a a S  S  S   T  T  T  S  S E a a S  S
|-22-19-------------------7-10S22--19-------------------7-10S===|
|-------20-------20S8---8-------------20-------20S8---8---------|
|----------21---------9------------------21---------9-----------|
|-------------19----------------------------19------------------|
|---------------------------------------------------------------|
|---------------------------------------------------------------|
|---------------------------------------------------------------|
|
|  E           E    E     E    +Q.                      E
|-------------------------5----(5)------------------------------|
|-------------------------5----(5)----------------------5-------|
|-------------------7-------------------------------------------|
|--------------7------------------------------------------------|
|--5------------------------------------------------------------|
|---------------------------------------------------------------|


  Dsus2                                D
      |--3--|
   S  T  T  T  S  S   S  S  T  T  T  S    S T T T E   T T T T T T
|-22-19--------------------------14-17S==10-7---------------------|
|-------20-------18-15-------15--------------8-------------------|
|----------21--------------16-------------------9-----9s4p2-------|
|-------------19--------14------------------------7---------4p2---|
|---------------------------------------------------------------4p|
|-----------------------------------------------------------------|
|-----------------------------------------------------------------|
|
|  E           E      E     E          E      E     E     E
|-----------------------------------------------------------------|
|--------------5--------------------------------------------------|
|--7------------------------7-----------------2-----------4-------|
|---------------------7----------------4------------5-------------|
|-----------------------------------------------------------------|
|-----------------------------------------------------------------|


  G
  H       +S  S a S S a  Q
|-------------------7-------------|
|---------------------8s10b12=====|
|-------------4-2s4---------------|
|---------------------------------|
|-2-------(2)---------------------|
|---------------------------------|
|---------------------------------|
|
| E E E E  E      E      E     E
|-----------------3---------------|
|----------3-------------3--------|
|-------4----------------------4--|
|-----5---------------------------|
|---5-----------------------------|
|-3-------------------------------|


   +S   S  S S S T T S S S S S S E E
|-------7----------------------------|
|-(10)r---10-8-7h8p7-----------------|
|--------------------9s7-6h7p6h7s9s4-|
|------------------------------------|
|------------------------------------|
|------------------------------------|
|------------------------------------|
|
|   E      E   E     E   E   E   E E
|----------------------------------3-|
|--------------------------------3---|
|----------------------------4-------|
|---5--------------------5-----------|
|----------5---------5---------------|
|--------------3---------------------|


  Fmaj7sus2
                ~~~~
                    |----6----|
  S E      +S  +E   S S S S S S S E   S a E   H       +Q    Q
|-------------------------------------------|---------------------|
|-------------------------------------------|---------------------|
|---4b5====(4)-(4)r-------------------------|---------------------|
|-------------------7p5p3-------------------|---------------------|
|-------------------------7p5p3-------------|---------------0-----|
|-------------------------------5p3s==5-5s3-|-3-------(3)---0-----|
|-------------------------------------------|---------------------|
|
| E      E      E   E     E     E   E     E   E E E E  E  E E E
|-------------------------------0-----------|-----------------0---|
|-------------------------1---------1-------|---------------1-----|
|-------------------0---------------------0-|-------------0-------|
|---------------3---------------------------|-3--------3----------|
|--------3----------------------------------|---3---3-------------|
|-1-----------------------------------------|-----1---------------|


  Em
             ~~~~~~~~~~                                                 ~~   PM-
                    |----3-----|  |---3---|    |---3---|  |---3---|
   Q        +Q     +E   +E     E  E  E    E    E  E    E  E  E    E E E E.   S
|-15b17====(15)r==(15)-(15)p==12------------|----------------------------------|
|--------------------------------15---------|----------------------------------|
|-----------------------------------14p==12-|-11-------------------------------|
|-------------------------------------------|----12----------------------------|
|-------------------------------------------|---------12-----------------------|
|-------------------------------------------|------------14s12---10----------5s|
|-------------------------------------------|-----------------------7-5-3------|
|
|  E     E   E  E   E       E     E    E       E    E     E    E    E E E  E
|---------------------------0---------------|-------------------------0--------|
|------------------(0)------------0---------|-----------------------0---0------|
|---------------0----------------------0----|------------------0-----------0---|
|------------2------------------------------|-------------2--------------------|
|--------2----------------------------------|-------2--------------------------|
|--0----------------------------------------|--0-------------------------------|


  Dsus2
 -----------------------------------------------------------|
     |--3--|  |-3--|            |-----6------| |------6------|
   E S  S  S  S S  S  T T  T  T S  S S S  S  S S  S  S  S S  S
|--------------------------------------------------------------|
|--------------------------------------------------------------|
|--------------------------------------------------------------|
|----------------------------------------------9----------9-10-|
|------------10p9---------------9----9-9-10-12---12-10-12------|
|-10-9-10-12------12-10p8-10-12---12---------------------------|
|--------------------------------------------------------------|
|
|  E E        E       E         E      E       E        E
|--------------------------------------------------------------|
|---------------------5---------5------------------------------|
|-------------7------------------------7-----------------------|
|----7-----------------------------------------7---------------|
|--5----------------------------------------------------5------|
|--------------------------------------------------------------|


  D5
   PM--------------------------------------------------------------------------------|
   |------6------|  |--3--|
   S  S S  S  S  S  S  S  S  T  T  T  T  T  T  T  T  T  T  T  T  T  T  T  T  T  T  T  T
|------------------------------------------------------------------------------14-15-17-|
|------------------------------------------------------------12-13-12-13-15S17----------|
|------------------11-12-11----------------11-12----11-12-14----------------------------|
|-12-10-9-10-12-14----------14-12-10-12-14-------14-------------------------------------|
|---------------------------------------------------------------------------------------|
|---------------------------------------------------------------------------------------|
|---------------------------------------------------------------------------------------|
|
|  W
|--5------------------------------------------------------------------------------------|
|--5------------------------------------------------------------------------------------|
|---------------------------------------------------------------------------------------|
|---------------------------------------------------------------------------------------|
|---------------------------------------------------------------------------------------|
|---------------------------------------------------------------------------------------|


  Emadd9
                   |--3--|
   A      +Q.      S  S  S  Q    E.    S    Q.     E  A      +E   +E   E  E
|-17b19==(17)-----17-17-17-17---17----17-|-17r-------22b24==(22)r(22)-19------|
|----------------------------------------|-------------------------------20---|
|----------------------------------------|------------------------------------|
|----------------------------------------|------------------------------------|
|----------------------------------------|------------------------------------|
|----------------------------------------|------------------------------------|
|----------------------------------------|------------------------------------|
|
|          E  E E  E        E E  E  E       E  E E E          E    E   E  E
|-----------------------------0----------|-------------------------0----------|
|---------------------------0------------|--------------------0--------0------|
|------------------0-------------0-------|---------0----------------------0---|
|---------------4-------------------4----|-------4----------------------------|
|-------------2--------------------------|-----2------------------------------|
|----------0-----------------------------|--0---------------------------------|


  Fmaj7+11
                     .5________/
   A     +Q.      E  Q.         +E
|----------------22p17---------(17)-|
|-22b24-(22)------------------------|
|-----------------------------------|
|-----------------------------------|
|-----------------------------------|
|-----------------------------------|
|-----------------------------------|
|
|         E  E E  E  E     E E   E
|--------------------------0--------|
|--------------------0-------0------|
|-----------------2--------------2--|
|--------------3--------------------|
|------------3----------------------|
|---------1-------------------------|
|
| Gtr III
|         W
|-----------------------------------|
|-----------------------------------|
|-----------------------------------|
|-----------------------------------|
|-----------------------------------|
|-----------------------------------|


                                 Emadd9
                                            ~~~~
                 |----3----|
   +Q.      E    Q    Q    Q     a  a      +W
|-(17)--------------------17---|---17b19==(17)------------------|
|--------------------15--------|--------------------------------|
|----------19-/16-------------|-x------------------------------|
|------------------------------|--------------------------------|
|------------------------------|--------------------------------|
|------------------------------|--------------------------------|
|------------------------------|--------------------------------|
|
|   E  E E  E    E E    E    E              E  E E E E E   E  E
|------------------0-----------|-----------------------0--------|
|----------------0------0------|---------------------0----------|
|-----------2----------------2-|-------------------0-------0----|
|--------3---------------------|-----------------4------------4-|
|------3-----------------------|---------------2----------------|
|---1--------------------------|------------0-------------------|
|
|   W                                       H        Q     Q
|------------------------------|--------------------------------|
|------------------------------|--------------------------------|
|------------------------------|----------------------------|
|------------------------------|----------------------------|
|------------------------------|--------------------------------|
|------------------------------|--------------------------------|


  Emadd9
   +Q     E.    a      +S   +S       +E.    +S   +S   S  S
|-(17)r--------22b24==(22)r(22)b24==(22)---(22)r(22)-19----|
|-------------------------------------------------------20-|
|---------x-----------------------------------------------|
|---------x-----------------------------------------------|
|----------------------------------------------------------|
|----------------------------------------------------------|
|----------------------------------------------------------|
|
|   E   E E  E               E           E   E        E
|----------------------------------------0-----------------|
|----------------------------0---------------0-------------|
|------------0----------------------------------------0----|
|---------4------------------------------------------------|
|-------2--------------------------------------------------|
|---0------------------------------------------------------|
|
|   W
|----------------------------------------------------------|
|-------------------------------------------------------|
|-------------------------------------------------------|
|----------------------------------------------------------|
|----------------------------------------------------------|
|----------------------------------------------------------|


  Amadd9
                                      /1           /    2.5     |
   A     +Q.      E  H          +E   +E    +E   S   S   +Q       +Q
|----------------22-22-------|-(22)-(22)--(22)--------------------------|
|-22b24-(22)--------22-------|-(22)-(22)--(22)--------------------------|
|----------------------------|---------------------------------------|
|----------------------------|-----------------(0)--()----()---|
|----------------------------|------------------------------------------|
|----------------------------|------------------------------------------|
|----------------------------|------------------------------------------|
|
|         E  E E  E  E E E E     E    E     E   E        E    E   E   E
|----------------------5-----|--------------------------------5---------|
|--------------------5-------|---------------------------5--------5-----|
|-----------------5------5---|------------------5---------------------5-|
|--------------9-----------9-|--------------9---------------------------|
|------------7---------------|--------7---------------------------------|
|---------5------------------|---5--------------------------------------|
|
|         W                      W
|----------------------------|------------------------------------------|
|----------------------------|------------------------------------------|
|----------------------------|------------------------------------------|
|----------------------------|------------------------------------------|
|----------------------------|------------------------------------------|
|----------------------------|------------------------------------------|


  Emadd9
          ~~~~                                             ~~~~~~~~~~  PM|
                         |----3----|
   a     +H        a  a  Q    Q    Q      E  S  S  +Q     +Q     +E.   T T
|-----------------------12---14---15s==|=22-22-22-(22)---(22)---(22)-------|
|-15b17-(15)---------12----------------|-----------------------------------|
|------------------x-------------------|---------------------------------0-|
|--------------------------------------|-------------------------------0---|
|--------------------------------------|-----------------------------------|
|--------------------------------------|-----------------------------------|
|--------------------------------------|-----------------------------------|
|
|         E  E E E       E E    E    E    E  E      E  E   E  E   E  E
|--------------------------0-----------|----------------------0------------|
|------------------------0-------------|-------------------0------0--------|
|----------------0--------------0------|---------------0-------------0-----|
|--------------4---------------------4-|------------4----------------------|
|------------2-------------------------|-----2-----------------------------|
|---------0----------------------------|--0--------------------------------|


  Cmaj7
   .5______/
                                                                                        ~~~
                      |---3---|  |---3---|
   Q        +E   +E   E  E    E  E  E    E    A      +S   +S       +E       +S   +E.    Q.      E
|-22-------(22)-(22)-19---------12h17p==12-|------------------------------------------------------|
|-----------------------20s==17------------|-17b19==(17)r(17)b19==(17)b20==(17)r(17)---17------17-|
|------------------------------------------|------------------------------------------------------|
|------------------------------------------|------------------------------------------------------|
|------------------------------------------|------------------------------------------------------|
|------------------------------------------|------------------------------------------------------|
|------------------------------------------|------------------------------------------------------|
|
|  E     E   E    E   E    E     E    E               E             E        E       E  E  E E  E
|---------------------0--------------------|--------------------------------------------0---------|
|-----------------0--------0---------------|-----------------------------------------0-----0------|
|------------0-------------------0---------|---------------------------------0---------------0----|
|--------2----------------------------2----|------------------------2---------------------------2-|
|--3---------------------------------------|----------3-------------------------------------------|
|------------------------------------------|------------------------------------------------------|


  Fmaj7+11
   H            Q        E      E
|-15tr17-------12tr15-----------------|
|-----------------------12tr15-15tr17-|
|-------------------------------------|
|-------------------------------------|
|-------------------------------------|
|-------------------------------------|
|-------------------------------------|
|
|  E     E E E  E     E  E      E
|---------------------0---------------|
|---------------0--------0------------|
|------------2------------------2-----|
|----------3--------------------------|
|--------3----------------------------|
|--1----------------------------------|


                                          Emadd9
   |--------3--------|
   Q        Q        Q        H
|-15tr17---17tr19---19tr22---22tr24--------|
|------------------------------------------|
|------------------------------------------|
|------------------------------------------|
|------------------------------------------|
|------------------------------------------|
|------------------------------------------|
|
|  E     E        E        E  E     E E E
|-----------------------------------0------|
|-----------------------------0-------0----|
|--------------------------2------------2--|
|-----------------3------------------------|
|--------3---------------------------------|
|--1---------------------------------------|


  Emadd9
   a     +S   E.    +E   S  S  S  S  S  S  S  S  S  S
|-22b24-(22)-22----(22)-22-22s17-17-19-19s15-15s17-17s|
|-----------------------------------------------------|
|-----------------------------------------------------|
|-----------------------------------------------------|
|-----------------------------------------------------|
|-----------------------------------------------------|
|-----------------------------------------------------|
|
|                                                     G
|         E      E   E   E     E     E     E     E
|------------------------------------0----------------|
|------------------------------0----------------------|
|------------------------0-----------------0----------|
|--------------------4---------------------------4----|
|----------------2------------------------------------|
|---------0-------------------------------------------|


   S  S  S  S  S  S  S  S  S  S  S  S S S  S  S
|-14-14-15-15s12-12s14-14s10-10s12-12s9-9-10-10--|
|------------------------------------------------|
|------------------------------------------------|
|------------------------------------------------|
|------------------------------------------------|
|------------------------------------------------|
|------------------------------------------------|
|
|tr III
|  E     E     Q           E     E    E    E
|------------------------------------------------|
|------------------------------------------------|
|--------------------------0---------------0-----|
|--------------2-----------------4----4----------|
|--------2---------------------------------------|
|--0---------------------------------------------|


  Emadd9
            ~
     |-3--|         |----3----|          |-----3-----|
  Q  E E  E H       E   E  A  E  A  Q   +E   E    A  E  A  E.   S
|-7--7-7s10-9----|--9--10-10s12-12s10--(10)-12---12s14-14s12s==14-|
|----------------|------------------------------------------------|
|----------------|------------------------------------------------|
|----------------|------------------------------------------------|
|----------------|------------------------------------------------|
|----------------|------------------------------------------------|
|----------------|------------------------------------------------|
|
| W                +H                   +E     E           E E
|----------------|------------------------------------------------|
|----------------|------------------------------------------------|
|----------------|-------------------------------------------0----|
|-4--------------|-(4)------------------(4)----------------4------|
|----------------|-----------------------------2------------------|
|----------------|------------------------------------------------|


   |------3------|
   Q  A  Q    A  Q  Q   E  E
|-15-15s17---17s19-19--19s22---|
|------------------------------|
|------------------------------|
|------------------------------|
|------------------------------|
|------------------------------|
|------------------------------|
|
|  Q       Q        Q   Q
|------------------------------|
|------------------------------|
|----------0-------------------|
|--4----------------4s==0------|
|------------------------------|
|------------------------------|


             Outro
  H.=Q=40   Freely Q=87
            Gtr I
                   5___/       2.5____/
   W          Q  E a   +S  +S   a      +Q.    +S       +S
|-22--------|----------------------------------------------|
|-----------|------------------15-----(15)---(15)b17==(15)-|
|-----------|------0---(0)-(0)-----------------------------|
|-----------|----------------------------------------------|
|-----------|----------------------------------------------|
|-----------|----------------------------------------------|
|-----------|----------------------------------------------|
|
|  W          W
|-----------|----------------------------------------------|
|-----------|----------------------------------------------|
|-----------|----------------------------------------------|
|-----------|----------------------------------------------|
|--0--------|----------------------------------------------|
|-----------|----------------------------------------------|


   +H       E  E  E  E
|----------12s14-15s17-|
|-(15)r----------------|
|----------------------|
|----------------------|
|----------------------|
|----------------------|
|----------------------|
|
|   W
|----------------------|
|----------------------|
|----------------------|
|----------------------|
|----------------------|
|----------------------|


   ~~~~~~~~~~
                    |--3--|
   H     +Q    +E   S  S  S
|-17----(17)--(17)-15h17p15-|
|---------------------------|
|---------------------------|
|---------------------------|
|---------------------------|
|---------------------------|
|---------------------------|
|
|  W
|---------------------------|
|---------------------------|
|---------------------------|
|---------------------------|
|---------------------------|
|---------------------------|


                   ~~~~                  ~~~~        ~~~
   E  S  S  +Q    +Q    S   S  S   S     Q.    S  S  Q.      S  S
|-14h15-15-(15)--(15)--14p=12-12s=14-|--14p===12------------------|
|------------------------------------|-----------15p12s=====14-14-|
|------------------------------------|----------------------------|
|------------------------------------|----------------------------|
|------------------------------------|----------------------------|
|------------------------------------|----------------------------|
|------------------------------------|----------------------------|
|
|  H               Q    E      E         H           Q   Q
|------------------------------------|----------------------------|
|------------------------------------|------------------------|
|---------------------------------|-------------------------|
|---------------------------------|----------------------------|
|---------------------------------|----------------------------|
|------------------------------------|----------------------------|


                             1.5    |
    ~~~~~~~~~~~~~~~~~~~~
   +W               +H      +Q      +E  E
|----------------|------------------------|
|-(14)-----------|-(14)----(14)----(14)---|
|----------------|------------------------|
|----------------|------------------------|
|----------------|------------------------|
|----------------|------------------------|
|----------------|------------------------|
|
|  +Q    Q  H        W
|----------------|------------------------|
|----------------|------------------------|
|-()----------|------------------------|
|----------------|------------------------|
|----------------|------------------------|
|----------------|------------------------|


     2____/                                2____/1____/
                                 |----3-----|
  E  A    +E   +E   S      +S    E    +E   +E    +E    +E
|----------------------------------------------------------|
|---18---(18)-(18)-18b21==(18)--18r==(18)-(18)--(18)--(18)-|
|----------------------------------------------------------|
|----------------------------------------------------------|
|----------------------------------------------------------|
|----------------------------------------------------------|
|----------------------------------------------------------|
|
| Q             Q               +H
|----------------------------------------------------------|
|---------------------------()-----------------------|
|---------------------------()-----------------------|
|----------------------------------------------------------|
|----------------------------------------------------------|
|----------------------------------------------------------|


                         ~~
   E    E   S  S   S  S  Q  E  E
|--------------------------------|
|-----/17-/19-17--15-17-19-------|
|-----------------------------14s|
|--------------------------------|
|--------------------------------|
|--------------------------------|
|--------------------------------|
|
|  Q        S  E.        H
|--------------------------------|
|--------------------------------|
|-----------------------------|
|-----------------------------|
|--------------------------------|
|--------------------------------|


   E   E  E   E  E   S S  S  S  E       +W            W
|------------------------------19b21-|-(19)---------|------*|
|------------14s18s=16---------------|--------------|------*|
|-18s=16-----------------------------|--------------|------*|
|----------------------------x-------|--------------|------*|
|------------------------------------|--------------|------*|
|------------------------------------|--------------|------*|
|------------------------------------|--------------|------*|
|
|  Q      Q      Q        Q             +W            W
|------------------------------------|--------------|------*|
|---------------------------------|-()--------|------*|
|------------------------------|-()--------|------*|
|------------------------------|--------------|------*|
|------------------------------------|--------------|------*|
|------------------------------------|--------------|------*|


Duration Legend
---------------
W - whole; H - half; Q - quarter; E - 8th; S - 16th; T - 32nd; X - 64th; a - acciaccatura
+ - note tied to previous; . - note dotted; .. - note double dotted
Uncapitalized letters represent notes that are staccato (1/2 duration)
Irregular groupings are notated above the duration line
Duration letters will always appear directly above the note/fret number it represents the
duration for.  Duration letters with no fret number below them represent rests.  Multi-
bar rests are notated in the form Wxn, where n is the number of bars to rest for.  Low
melody durations appear below the staff

Tablature Legend
----------------
 h   - hammer-on
 p   - pull-off
 b   - bend
 pb  - pre-bend
 r   - bend release (if no number after the r, then release immediately)
 /  - slide into or out of (from/to "nowhere")
 s   - legato slide
 S   - shift slide
  - natural harmonic
[n]  - artificial harmonic
n(n) - tapped harmonic
 ~   - vibrato
 tr  - trill
 T   - tap
 TP  - trem. picking
 PM  - palm muting
n/  - tremolo bar dip; n = amount to dip
 n  - tremolo bar down
 n/  - tremolo bar up
/n  - tremolo bar inverted dip
 =   - hold bend; also acts as connecting device for hammers/pulls
   - volume swell (louder/softer)
 x   - on rhythm slash represents muted slash
 o   - on rhythm slash represents single note slash

Misc Legend
-----------
 |  - bar
||  - double bar
||o - repeat start
o|| - repeat end
*|  - double bar (ending)
 :  - bar (freetime)
 $  - Segno
 &  - Coda
Tempo markers -  = BPM(8/16=s8/s16), where s8 = swing 8ths, s16 = swing 16ths
Comments