Vai Steve - Eugene's Trick Bag Chords & Tabs

 

Eugene's Trick Bag Chords & Tabs

Vai Steve Chords & Tabs

Version: 1 Type: Tab 4 ratings
1 star 2 stars 3 stars 4 stars 5 stars
comments

Eugene's Trick Bag Tab

   
#----------------------------------PLEASE NOTE---------------------------------#
#This file is the author's own work and represents their interpretation of the #
#song. You may only use this file for private study, scholarship, or research. #
#------------------------------------------------------------------------------##

                               EUGENE'S TRICK BAG
                            As recorded by Steve Vai
            (From the 2002 Album THE ELUSIVE LIGHT AND SOUND VOL. 1)

Music by Steve Vai
Transcribed by les_paul 1967
feel free to e-mail me @ les_paul 1967@hotmail.co.uk with any suggestions/comments you have on this tab.

Gtr I (E A D G B E) - 'Untitled'

  Q=120
 4/4
  Gtr I
  H.      S S S S     S S S S S S S S S S S S S S S S  3x
|-----------------||-----------------------------------||
|-----------------||o---------------------------------o||
|-----------2-4-2-||--5-2-4-2-5-2-4-2-5-2-4-2-5-2-4-2--||
|-----------------||-----------------------------------||
|-----------------||o---------------------------------o||
|-----------------||-----------------------------------||


                          H.=H
  S S S S S S S S S S S S S S S S
|-----------------------------------|
|-----------------------------------|
|-5-2-4-2-5-2-4-2-5-2-4-2-5-2-4-2---|
|-----------------------------------|
|-----------------------------------|
|-----------------------------------|


  +W           S S S S S S  S S  S S  S S S S S S
|------------|----------------8-12-8--------------|
|------------|-------------10--------10-----------|
|-(2)--------|---------5-9--------------9-5-------|
|------------|-------7----------------------7-----|
|------------|-----7--------------------------5---|
|------------|-5-8------------------------------8-|


  S S S S S S S S S S S S S S S S
|-----------------7-----------------|
|---------------9---9---------------|
|-----------7-9-------9-7-----------|
|-------6-9---------------9-6-------|
|---5-7-----------------------7-5---|
|-7---------------------------------|


  S S S S S S S S S S S S S S S S   S S S S S  S  S  S  S  S  S  S S S  S S
|-----------------5---------------|-----------------10-13-10----------------|
|-------------5-8---8-5-----------|--------------10----------10-------------|
|-----------6-----------6---------|---------7-10----------------10-7--------|
|-------5-7---------------7-5-----|-------7--------------------------7------|
|-----7-----------------------7---|---5-8-----------------------------------|
|-5-9---------------------------9-|-5----------------------------------10-8-|


  S  S S  S S  S  S S  S S  S S S S S S
|---------------------------------------|
|-------------------9-12-9--------------|
|----------------10--------10-7---------|
|-----------9-12----------------9-6-----|
|------8-11-------------------------8---|
|-7-10--------------------------------7-|


                        H.=H
  S S S S S S S S S S S S  S  S S  S    +E    H     Q.
|-------------------5---8----12-8-16-|-(16)-(16)----------|
|---------------5-----5---10---------|--------------------|
|-----------5-----5------------------|--------------------|
|-------7-----7----------------------|--------------------|
|---7-----7--------------------------|--------------------|
|-5---8------------------------------|--------0-----------|


    $
     S  S  S  S  S  S  S  S  S  S  S  S  S  S  S  S
||-----------------------------17-15-13--------------||
||o----13-17-13----15-17-15-13----------17-15-13----o||
||--14----------16-------------------------------16--||
||---------------------------------------------------||
||o-------------------------------------------------o||
||---------------------------------------------------||


   S  S  S  S  S  S  S  S  S  S  S  S  S  S  S  S
|-------------17-15-13----------19-17-15-----------|
|----14-17-14----------17-14-15----------18-17-15--|
|-14-----------------------------------------------|
|--------------------------------------------------|
|--------------------------------------------------|
|--------------------------------------------------|


   S  S  S  S  S  S  S  S  S  S  S  S  S  S  S  S
|----------------------------17-15----------------|
|-------15----18-17-15-------------18-17-15-------|
|----16----16----------16-17----------------17-16-|
|-17----------------------------------------------|
|-------------------------------------------------|
|-------------------------------------------------|


   S  S  S  S  S  S  S  S  S  S  S  S  S  S  S  S
|-------------------------------------------17----|
|-------------18-17-15----------18-------------16-|
|----14-17-14----------17----16----19-17----------|
|-15----------------------18-------------19-------|
|-------------------------------------------------|
|-------------------------------------------------|


 3/4
   S  S  S  S  S  S  S  S  S  S  S  S    S S  S S S S S S S S S S
|----16-------14-------12-------10----|----9------7-----5-----4---|
|-17----17S15----15S14----14S12----12S|=10---10S9---9S7---7S5---5-|
|-------------------------------------|---------------------------|
|-------------------------------------|---------------------------|
|-------------------------------------|---------------------------|
|-------------------------------------|---------------------------|


                           To Coda
   4/4
    S S S S S S S S S S S S S S S S
||--7-4---0-7-4---0-7-4---0-7-4---0--||-|
||o-----5-------5-------5-------5---o||-|
||-----------------------------------||-|
||-----------------------------------||-|
||o---------------------------------o||-|
||-----------------------------------||-|


    S S S S  S  S  S S  S  S  S S  S S  S S   4x
||--7-4---0-14-11----0-17-14----0-12-9----0---||
||o-----5---------12---------15--------10----o||
||--------------------------------------------||
||--------------------------------------------||
||o------------------------------------------o||
||--------------------------------------------||

[ Tab from: http://www.guitartabs.cc/tabs/v/vai_steve/eugenes_trick_bag_tab.html ]
     S  S  S S S S S S  S  S  S S S S S S
||--19-16----0-7-4---0-17-14----0-5-2---0--||-|
||o-------17-------5---------15-------3---o||-|
||-----------------------------------------||-|
||-----------------------------------------||-|
||o---------------------------------------o||-|
||-----------------------------------------||-|


     S  S  S S  S S S S  S  S  S S S S S S
||--22-19----0-10-7---0-20-17----0-8-5---0--||
||o-------20--------8---------18-------6---o||
||------------------------------------------||
||------------------------------------------||
||o----------------------------------------o||
||------------------------------------------||


   S  S  S  S  S  S  S  S  S  S  S  S  S  S  S  S
|-22-19-------19----------------------------------|
|-------21-18----21-18----21-18-------18----------|
|----------------------19-------19-16----19-16----|
|----------------------------------------------18-|
|-------------------------------------------------|
|-------------------------------------------------|


   S  S  S  S  S  S  S  S  S  S  S  S  S  S  S  S    H    H
|-------------------------------------------------|------------|
|-------------------------------------------------|------------|
|-19-16-------16----------------------------------|-------2----|
|-------18-15----18-15----18-15-------15----------|-------2----|
|----------------------17-------17-14----17-14----|-------0----|
|----------------------------------------------16-|-17---------|


     |----6----| |----6----| |----6----|
  Q  S S S S S S S S S S S S S S S S S S
|----------------------------------------|
|----------------------------------------|
|----------------------------------------|
|-2--------------------------------------|
|-2--------------------------------------|
|-0--0-0-0-0-0-0-0-0-0-0-0-0-0-0-0-0-0-0-|


  |----6----| |-3-| |--3---|  |-3--|
  S S S S S S E E E E   E  E  E E  E    +W
|---------------------------------24-|-(24)----|
|-------------------------17---------|---------|
|-------------------9----------------|---------|
|---------------------/14----21------|---------|
|-------------7S2S7------------------|---------|
|-0-0-0-0-0-0-------------------0----|---------|


  S S S S S S S S S  S S S  S S  S  S
|-------------------------------------|
|-----------------------------9-10-12-|
|----------------------7-9-10---------|
|-------------6-7-9-10----------------|
|-------5-7-8-------------------------|
|-5-7-8-------------------------------|


                          H.=H
                                                     D.S. al Coda
   S  S  S  S  S  S  S  S  E  E  E     E       W             Wx4
|----10-12-13-16-17-19-20-22-24-24b26-24b28-|-24b29--------|---------|
|-13----------------------------------------|--------------|---------|
|-------------------------------------------|-18-----------|---------|
|-------------------------------------------|--------------|---------|
|-------------------------------------------|-19-----------|---------|
|-------------------------------------------|--------------|---------|


    &
    S S S S  S  S  S S  S  S  S S  S S  S S
||--7-4---0-14-11----0-17-14----0-12-9----0--||
||o-----5---------12---------15--------10---o||
||-------------------------------------------||
||-------------------------------------------||
||o-----------------------------------------o||
||-------------------------------------------||


  S S S S S S S S S  S S S  S S  S  S
|--------------------------------------|
|-----------------------------9-10-12--|
|----------------------7-9-10----------|
|-------------6-7-9-10-----------------|
|-------5-7-8--------------------------|
|-5-7-8--------------------------------|


   S  S  S  S  S  S  S  S  S E. Q    S S S S S S S S S  S S S  S S  S  S
|----10-12-13-16-17-19-20----------|-------------------------------------|
|-13----------------------17-------|-----------------------------9-10-12-|
|----------------------------------|----------------------7-9-10---------|
|----------------------------------|-------------6-7-9-10----------------|
|----------------------------------|-------5-7-8-------------------------|
|----------------------------------|-5-7-8-------------------------------|


                          H.=H
   S  S  S  S  S  S  S  S  E  E  E     E       H       H
|----10-12-13-16-17-19-20-22-24-24b26-24b28-|-24b29---------*|
|-13----------------------------------------|---------------*|
|-------------------------------------------|---------------*|
|-------------------------------------------|---------------*|
|-------------------------------------------|---------------*|
|-------------------------------------------|---------------*|


Duration Legend
---------------
W - whole; H - half; Q - quarter; E - 8th; S - 16th; T - 32nd; X - 64th; a - acciaccatura
+ - note tied to previous; . - note dotted; .. - note double dotted
Uncapitalized letters represent notes that are staccato (1/2 duration)
Irregular groupings are notated above the duration line
Duration letters will always appear directly above the note/fret number it represents the
duration for.  Duration letters with no fret number below them represent rests.  Multi-
bar rests are notated in the form Wxn, where n is the number of bars to rest for.  Low
melody durations appear below the staff

Tablature Legend
----------------
 h   - hammer-on
 p   - pull-off
 b   - bend
 pb  - pre-bend
 r   - bend release (if no number after the r, then release immediately)
 /\  - slide into or out of (from/to "nowhere")
 s   - legato slide
 S   - shift slide
  - natural harmonic
[n]  - artificial harmonic
n(n) - tapped harmonic
 ~   - vibrato
 tr  - trill
 T   - tap
 TP  - trem. picking
 PM  - palm muting
\n/  - tremolo bar dip; n = amount to dip
 \n  - tremolo bar down
 n/  - tremolo bar up
/n\  - tremolo bar inverted dip
 =   - hold bend; also acts as connecting device for hammers/pulls
   - volume swell (louder/softer)
 x   - on rhythm slash represents muted slash
 o   - on rhythm slash represents single note slash

Misc Legend
-----------
 |  - bar
||  - double bar
||o - repeat start
o|| - repeat end
*|  - double bar (ending)
 :  - bar (freetime)
 $  - Segno
 &  - Coda
Tempo markers -  = BPM(8/16=s8/s16), where s8 = swing 8ths, s16 = swing 16ths


***************************************************************************************
* Generated using Power Tab Editor by Brad Larsen - http://powertab.guitarnetwork.org *
***************************************************************************************
Comments