Vader - Freezing Moon Chords & Tabs

 

Freezing Moon Chords & Tabs

Vader Chords & Tabs

Version: 1 Type: Tab 0 ratings
1 star 2 stars 3 stars 4 stars 5 stars
comments

Freezing Moon Tab

Band: Vader
Album: Future of the Past
Song: Freezing Moon
by vaderfan
*** ORIGINALLY BY "J.Tervo"


Riff 1  					     Intro riff 8x
----0----------0----------0---------------------------------------------------------
------0----------0----------0-------------------------------------------------------
--------0----------0----------0-----------------------------------------------------
--2-------2--2-------2--2-------2--7/8-8-8-7-5-3------------------------------------
--2----------2----------2----------7/8-8-8-7-5-3------------------------------------
--0----------0----------0----------5/6-6-6-5-3-1------------------------------------

Riff 2						                4x
------------------------------------------------------------------------------------
------------------------------------------------------------------------------------
------------------------------------------------------------------------------------
----------7--7-7----------9/8--8-8----------7--7-7----------3--3-3------------------
--2--2-2--5--5-5--2--2-2--7/6--6-6--2--2-2--5--5-5--2--2-2--3--3-3------------------
--0--0-0----------0--0-0--7/6--6-6--0--0-0----------0--0-0--1--1-1------------------

Riff 3		   8x	 Riff 4				4x
----------------------   -----------------------------------------------------------
----------------------   -----------------------------------------------------------
----------------------   -----------------------------------------------------------
----------------------   -----------------------------------------------------------
-----------6--7-------   ------------------7-7-7-7----------------------------------
--0-0-0-0--6--7-------   --0-0-0-0-6-6-6-6---------6-6-6-6--------------------------
[ Tab from: http://www.guitartabs.cc/tabs/v/vader/freezing_moon_tab.html ]
Riff 5	- Goes under singing	4x
------------------------------------------------------------------------------------
------------------------------------------------------------------------------------
------------------------------------------------------------------------------------
--------------------------9-9-------------------------------------------------------
--2-2-2-2-2-2-2-2-8-8-8-8-7-7-8-8---------------------------------------------------
--0-0-0-0-0-0-0-0-6-6-6-6-----6-6---------------------------------------------------

Riff 6 - Played very fast       4x     Riff 7			      4x
------------------------------------   ---------------------------------------------
------------------------------------   ---------------------------------------------
------------------------------------   ---------------------------------------------
----------------------9-------------   ------------------9-9-9-9--------------------
------2-------8---7-7---7-----8-----   --2-2-2-2-8-8-8-8-7-7-7-7-8-8-8-8------------
--0-0---0-6-6---6---------6-6---6---   --0-0-0-0-6-6-6-6---------6-6-6-6------------

Riff 8  First 4 times with bass E# 0  1  00 0 1
        Guitar comes in with a pick-scratch

Or alternatively      -------------------------------------------------------------
with guitar:----      ---------------------------------6x-without-singing----------
----------------      ---------------------------------8x-with-singing-------------
----------------      --2---3---2-2--2-3---------------8x-under-solo---------------
-2--3--2-2--2-3-      --2---3---2-2--2-3---------------8x-with singing-------------
-0--1--0-0--0-1-      --0---1---0-0--0-1-------------------------------------------


      Play order:
	Riff 1 8x
	Riff 2 4x
	Riff 3 8x
	Riff 4 4x
	Riff 5 4x
	Riff 6 4x
	Riff 5 4x
	Riff 7 4x
	Riff 8 34x
	Riff 7 8x
Comments