Vader - Carnal Chords & Tabs

 

Carnal Chords & Tabs

Vader Chords & Tabs

Version: 1 Type: Tab 0 ratings
1 star 2 stars 3 stars 4 stars 5 stars
comments

Carnal Tab

   
VADER : CARNAL
from the album Black to the Blind
tabs by mattrey

6 str tuned down to D

only the used strings are shown
this is a very easy song but to get the accurate rhytm listen to the CD

riff A

4||-4----8-5----4----9-6----|-4----8-5----4----9-6------|
5||-4----8-5----4----9-6----|-4----8-5----4----9-6------|
6||-2----6-3----2----7-4----|-2----6-3----2----7-4----3-|


riff B

4||-4----8-5----4----9-6------|
5||-4----8-5----4----9-6------|
6||-2----6-3----2----7-4----3-|

[ Tab from: http://www.guitartabs.cc/tabs/v/vader/carnal_tab.html ]
Riff C
                        stopchord
5||----------------ph-||-2-|
6||-2222-2222-2222--3-||-0-|



Riff D

5||----------55555555-0-11111111-----------| 
6||-22222222---------------------3333333-0-|

Riff D2

5||----------55555555-11111111---------| 
6||-22222222-------------------3333333-|


song structure (i'm doing this from the head so there might be something wrong with the times)

Riff A 1 time
Riff B 2 time
Riff C 4 times
Riff C 4 times and after the 4th time the stopchord
vocal part
riff D 2times
riff D2 4 times
riff c 4 times
Riff C 4 times and after the 4th time the stopchord
vocal part
riff D 2times
riff D2 4 times (to end the song slide down an G#5 chord (fourth fret)
Comments