Usurper - Dismal Wings Of Terror Chords & Tabs

 

Dismal Wings Of Terror Chords & Tabs

Usurper Chords & Tabs

Version: 1 Type: Tab 0 ratings
1 star 2 stars 3 stars 4 stars 5 stars
comments

Dismal Wings Of Terror Tab

   
                      Usurper- Dismal Wings of Terror
                     From the Album - Usurper II-Skeletal Season
              Copyright 1998 - Necropolis Records
                     Version 1.0 - December- 2001
Transcribed by: Mike B.

For Questions, Comments, Newest Version, or Corrections contact
Steve S.: at Setherial99@AOL.com

..  - palm mute          /  - slide up to
 \  - slide down to      ~  - vibrato
 h  - hammer on          b  - bend
 p  - pull off            Suffixes for bend
                          ph - pinch harmonic
                           f - full bend    h - half bend
*  - see comment           r - release      t - tap bend
X  - percussion mute       ~ - vibrato bend
@  - slight palm mute     () - ghost note, sustained note

Drop D tuning

Dismal Wings of Terror

Riff A
|--------------------------------------------------------------------|
|--------------------------------------------------------------------|
|--------------------------------------------------------------------|
|--------------------------------------------------------------------|
|--0--1--0---0--1--0---0-0---444444443333333344444444----------------|
|--0--1--0---0--1--0---0-0---444444443333333344444444----------------|
   .

Riff B
|--------|------------------------------------|----------------------|
|--------|------------------------------------|----------------------|
|--------|------------------------------------|----------------------|
|--------|------------------------------------|----------------------|
|--0--1--|--8888888877777777------------------|--6666----5555--------|
|--0--1--|------------------1010101010101010--|------9999----8888----|
|  .                                                                 |
|------------------------------------|-------------------------------|
|------------------------------------|-------------------------------|
|------------------------------------|-------------------------------|
|------------------------------------|-------------------------------|
|--8888888877777777------------------|--6666----5555-----------------|
|------------------1010101010101010--|------9999----8888-------------|
|                                                                    |
|--------------------------------------------------------------------|
|--------------------------------------------------------------------|
|--------------------------------------------------------------------|
|--101010101010101099999999------------------------------------------|
|--------------------------1010101010101010--------------------------|
|--------------------------------------------------------------------|
|                                                                    |
|--------------------------------------------------------------------|
|--------------------------------------------------------------------|
|--------------------------------------------------------------------|
|--88888888----------------77777777----------------------------------|
|----------1010101010101010--------88888888--------------------------|
|--------------------------------------------------------------------|
|                                                                    |
|--------------------------------------------------------------------|
|--------------------------------------------------------------------|
|--------------------------------------------------------------------|
|--------------------------------------------------------------------|
|-8888888877777777---------------------------------------------------|
|-----------------1010101010101010-----------------------------------|
|                                                                    |
|--------------------------------------------------------------------|
|--------------------------------------------------------------------|
|--------------------------------------------------------------------|
|--------------------------------------------------------------------|
|--66666666--------88888888------------------------------------------|
|----------99999999--------88888888----------------------------------|
[ Tab from: http://www.guitartabs.cc/tabs/u/usurper/dismal_wings_of_terror_tab.html ]
Riff C
|--------------------------------------------------------------------|
|--------------------------------------------------------------------|
|--------------------------------------------------------------------|
|--------------------------------------------------------------------|
|--1p0-------0-------3\2--4\3--3\2--4\3------------------------------|
|--1p0--0-0--0--0-0--3\2--4\3--3\2--4\3------------------------------|
        . .     . .
Riff D
|------------------------------------|-------------------------------|
|------------------------------------|-------------------------------|
|------------------------------------|-------------------------------|
|--00000000000000001111111111111111--|--444433334444-----------------|
|--00000000000000001111111111111111--|--444433334444-----------------|
|--00000000000000001111111111111111--|--444433334444-----------------|

Riff E
|------------------------------|-------------------------------------|
|------------------------------|-------------------------------------|
|------------------------------|-------------------------------------|
|------------------------------|-------------------------------------|
|--88888888--11-10-8--11-10-8--|--77777777--10-8-7--10-8-7-----------|
|------------------------------|-------------------------------------|
|                                                                    |
|--------------------------|-----------------------------------------|
|--------------------------|-----------------------------------------|
|--------------------------|-----------------------------------------|
|--------------------------|-----------------------------------------|
|--33333333--6-5-3--6-5-3--|--33333333--6-5-3--6-5-3-----------------|
|--------------------------|-----------------------------------------|
|                                                                    |
|--------------------------------------------------------------------|
|--------------------------------------------------------------------|
|--------------------------------------------------------------------|
|--1010101010101010--13-12-10--13-12-10--99999999--12-10-9--12-10-9--|
|--------------------------------------------------------------------|
|--------------------------------------------------------------------|
|                                                                    |
|--------------------------|-----------------------------------------|
|--------------------------|-----------------------------------------|
|--------------------------|-----------------------------------------|
|--55555555--8-7-5--8-7-5--|--55555555--8-7-5--8-7-5-----------------|
|--------------------------|-----------------------------------------|
|--------------------------|-----------------------------------------|

Riff F
|----------------------------------|---------------------------------|
|----------------------------------|---------------------------------|
|----------------------------------|---------------------------------|
|----------------------------------|---------------------------------|
|-8888888877777777-----------------|-66666666--------55555555--------|
|-----------------1010101010101010-|---------99999999--------88888888|
|                                                                    |
|-----------|--------------|-----------------------------------------|
|-----------|--------------|-----------------------------------------|
|-----------|--------------|-----------------------------------------|
|-----------|--------------|-----------------------------------------|
|--1--0-----|--------------|-----------------------------------------|
|--------3--|--6--2--5--1--|--0--------------------------------------|

Riff G
|--------------------------------------------------------------------|
|--------------------------------------------------------------------|
|--------------------------------------------------------------------|
|--1p0-------1p0-------1p0-------1p0---------------------------------|
|--1p0-------1p0-------1p0-------1p0---------------------------------|
|--1p0--0-0--1p0--0-0--1p0--0-0--1p0--0-0----------------------------|
|       . .       . .       . .       . .                            |
|--------------------------------------------------------------------|
|--------------------------------------------------------------------|
|--------------------------------------------------------------------|
|--1p0--1p0--1p0--1p0--1p0--1p0--1p0--1p0----------------------------|
|--1p0--1p0--1p0--1p0--1p0--1p0--1p0--1p0----------------------------|
|--1p0--1p0--1p0--1p0--1p0--1p0--1p0--1p0----------------------------|

Riff H
|--------------------------------------------------------------------|
|--------------------------------------------------------------------|
|--------------------------------------------------------------------|
|--0--4--1----0-4-1----0--4--1----0-4-1------------------------------|
|--0--4--1----0-4-1----0--4--1----0-4-1------------------------------|
|--0--4--1----0-4-1----0--4--1----0-4-1------------------------------|
|                                                                    |
|--------------------------------------------------------------------|
|--------------------------------------------------------------------|
|--------------------------------------------------------------------|
|--0-0--000--4-4--444--1-1--111-111111-------------------------------|
|--0-0--000--4-4--444--1-1--111-111111-------------------------------|
|--0-0--000--4-4--444--1-1--111-111111-------------------------------|

The end.
Comments