Usher - You Got It Bad Chords & Tabs

 

You Got It Bad Chords & Tabs

Usher Chords & Tabs

Version: 4 Type: Tab 0 ratings
1 star 2 stars 3 stars 4 stars 5 stars
comments

You Got It Bad Tab

#----------------------------------PLEASE NOTE--------------------------------#
#This file is the author's own work and represents their interpretation of the#
#song. You may only use this file for private study, scholarship, or research.#
#-----------------------------------------------------------------------------#
#-- File created with Instab - http://www.pconline.com/~smcarey/instab.html --#
#-----------------------------------------------------------------------------#

---13-13-------------------------13-------------------------------------------|
---------16-14-14-16----14----16----14-16-13-14-------------------------------|
---------------------15----15-------------------15-13-15----------------------|
---------------------------------------------------------15-13----------------|
---------------------------------------------------------------16-18-18-18----|
------------------------------------------------------------------------------|
[ Tab from: http://www.guitartabs.cc/tabs/u/usher/you_got_it_bad_tab_ver_4.html ]

---------------------------------------------------13-14-16-16-16-16-18-16----|
---------------------------------------16-14----14-------------------------18-|
------------------------------13----13-------16-------------------------------|
---------------------------15----15-------------------------------------------|
---18-13----------16-13-16----------------------------------------------------|
---------13-16-13-------------------------------------------------------------|


---16-18-20-21-20-18-16-18----------------16-14-14----------------------------|
---------------------------18-16-14-16-14----------18-18-16-16-14-18----------|
------------------------------------------------------------------------------|
------------------------------------------------------------------------------|
------------------------------------------------------------------------------|
------------------------------------------------------------------------------|
Comments