Usher - You Got It Bad Chords & Tabs

 

You Got It Bad Chords & Tabs

Usher Chords & Tabs

Version: 3 Type: Tab 0 ratings
1 star 2 stars 3 stars 4 stars 5 stars
comments

You Got It Bad Tab

 Song: You Got It Bad
 Artist: Usher
 Album: 8701

b - Bend
r - release
\\ - slide down to 1
h - hammer
/ - slide to
p - pull off

E|----------------------------------------------------|
B|----14-16-16b18-16r18-16b18r16-14-16\\-------14-----|
G|-15---------------------------------------15----15--|
D|----------------------------------------------------|
A|----------------------------------------------------|
E|----------------------------------------------------|

E|-------13----------------------------------------------|
B|-14h16----14-16-13-14----------------------------------|
G|----------------------15-13-15-------------------------|
D|-------------------------------13/15/15----11/13-11h13-|
A|-------------------------------------------------------|
E|-------------------------------------------------------|
[ Tab from: http://www.guitartabs.cc/tabs/u/usher/you_got_it_bad_tab_ver_3.html ]
E|------------------------------------------------------|
B|------------------------------------------------9-----|
G|--------------------------------6----8-6--8/10----10--|
D|-11h13-11h13-13p11---------6------8-------------------|
A|-------------------13----8----8-----------------------|
E|------------------------------------------------------|

E|---11-9----9--/13/14/16---16-16-16/18-16----16---|
B|-9------11-------------------------------18------|
G|-------------------------------------------------|
D|-------------------------------------------------|
A|-------------------------------------------------|
E|-------------------------------------------------|

                *       
E|-18b20h21b20r18--16--18---------------------16-14-13-13-|
B|-------------------------16/18/16--14-16-14-------------|
G|--------------------------------------------------------|
D|--------------------------------------------------------|
A|--------------------------------------------------------|
E|--------------------------------------------------------|

E|----------------|
B|-14-14-16b18----|
G|----------------|
D|----------------|
A|----------------|
E|----------------|

to do the 18b20h21b20r18 you bend to 20 and then use your pinky to play the 21
on the bending string then return back to 20 and release back to the 18. its a
little hard to understand but you'll get it dont worry.

Lataz fellaz
Comments