Usher - U Remind Me Chords & Tabs

 

U Remind Me Chords & Tabs

Usher Chords & Tabs

Version: 1 Type: Tab 0 ratings
1 star 2 stars 3 stars 4 stars 5 stars
comments

U Remind Me Tab

Ok everyone here it is!
Band: Usher
Song: Uremind Me
Album: 8701
this is the main melody line

E-------------------------------------
B--14--14---14---11-9--7--4--11--9--14
G-------------------------------------
D-------------------------------------
A-------------------------------------
E-------------------------------------
[ Tab from: http://www.guitartabs.cc/tabs/u/usher/u_remind_me_tab.html ]
E----------------------------------
B--14--14--14-11-9-7--4-11--9--6--4
G----------------------------------
D----------------------------------
A----------------------------------
E----------------------------------

E-------------------------------------
B-14--14--14--11-9--7--4---11--9--6--4
G-------------------------------------
D-------------------------------------
A-------------------------------------
E-------------------------------------

E----------------------------
B--9--11--12--11--7--7--9--11
G----------------------------
D----------------------------
A----------------------------
E----------------------------
Comments