Usher - Seductions Chords & Tabs

 

Seductions Chords & Tabs

Usher Chords & Tabs

Version: 1 Type: Chords 0 ratings
1 star 2 stars 3 stars 4 stars 5 stars
comments

Seductions Chords

   
"Seductions" By Usher Raymond

Finally getting time to tab again. Hope you enjoy. .  .

Riff throught the song.

E:----------------------|
A:----------------------|
D:----------------------|
G:----------------------|
B:-9/12-8---7h8-8-7h8p7-|
E:----------------------|

Chords

   D  A     A      A        A   Bb   Bb
[ Tab from: http://www.guitartabs.cc/tabs/u/usher/seductions_crd.html ]
E:-x---x----x------x--------x---x----x------------|
A:-5---0~~~~0------0--------0---1~~~~1------------|
D:-7---2~~~~-2-----2--------2---3~~~~-3-----------|
G:-7---2~~~~--2----2--------2---3~~~~--3-------3~-|
B:-x---x-------2---x--------x---x-------3-----3~--|
E:-x---x----x---x--x--------x---x--------3/5\3~---|

As always, listen to the song for thespeed of things.
Enjoy!

Chabar4185@yahoo.com

Legend:
H = Hammer on
P = Pull off
~ = Let ring
/= Slide up
\= Slide down
Comments