Usher - My Boo Chords & Tabs

 

My Boo Chords & Tabs

Usher Chords & Tabs

Version: 1 Type: Tab 0 ratings
1 star 2 stars 3 stars 4 stars 5 stars
comments

My Boo Tab

Well this isn't really the intro it's just lyk the beginning...

e-8-12-13-12-13-10-8-8-5-6-5-6-8-8-----|
b--------------------------------------|
g--------------------------------------|
d--------------------------------------|
a--------------------------------------|
e--------------------------------------|
There's always that on person that will always have your heart
[ Tab from: http://www.guitartabs.cc/tabs/u/usher/my_boo_tab.html ]
e-8-12-13-12-13-10-8-8-5-6-5-6-8-8-----|
b--------------------------------------|
g--------------------------------------|
d--------------------------------------|
a--------------------------------------|
e--------------------------------------|
you never see it coming cause your blinded from the start

e-8-8-12-13-10-8-8---------------------|
b--------------------------------------|
g--------------------------------------|
d--------------------------------------|
a--------------------------------------|
e--------------------------------------|
Know that your that one for me

e-8-5-6-5-6-8-8------------------------|
b--------------------------------------|
g--------------------------------------|
d--------------------------------------|
a--------------------------------------|
e--------------------------------------|
It's clear for everyone to see
Comments