Usher - Burn Chords & Tabs

 

Burn Chords & Tabs

Usher Chords & Tabs

Version: 2 Type: Tab 0 ratings
1 star 2 stars 3 stars 4 stars 5 stars
comments

Burn Tab

[Inntro]
e--------4-------------9-----------------------||
B---4/6-------4--4/6------6---4--7--4h6p4--4---||
G----------6----------------------------------6||
D----------------------------------------------||
A----------------------------------------------||
E----------------------------------------------||
[ Tab from: http://www.guitartabs.cc/tabs/u/usher/burn_tab_ver_2.html ]
[Main]
e---------------------------------------------------------7/8--||
B-----------4/6---9---------4--4/6------4---4/6--4--6--9-------||
G--6-----6------------6--6-------------------------------------||
D-----6-----------------------------8--------------------------||
A--------------------------------------------------------------||
E--------------------------------------------------------------||

e---------------------------------||
B---9-----4/6---4---7--4h6p4--4---||
G------4-------------------------6||
D---------------------------------|| 
A---------------------------------||
E---------------------------------||

Then u just repeat the Main  until the end of the song.  dis is the best ive seen.
Comments