Useless Id - State Of Fear Chords & Tabs

 

State Of Fear Chords & Tabs

Useless Id Chords & Tabs

Version: 1 Type: Tab

State Of Fear Tab

Standard Tuning

Verse
------------------------------------------------------------------|
------------------------------------------------------------------|
-6-6-6-x-----------------6-6-6-x---------9-9-9-x---------6-6-6-x--|
-6-6-6-x-7-7-7-x-9-9-9-x-6-6-6-x-7-7-7-x-9-9-9-x-4-4-4-x-6-6-6-x--|
-4-4-4-x-7-7-7-x-9-9-9-x-4-4-4-x-7-7-7-x-7-7-7-x-4-4-4-x-4-4-4-x--|
---------5-5-5-x-7-7-7-x---------5-5-5-x---------2-2-2-x----------|
[ Tab from: http://www.guitartabs.cc/tabs/u/useless_id/state_of_fear_tab.html ]
Solo
---------------------------7h9-----7h9-----7h9-----7h9-14b16-14b16-14-|
------------------7/9--7h9-----7h9-----7h9-----7h9--------------------|
-9--9-8-6---6h8-9-----------------------------------------------------|
----------9-----------------------------------------------------------|
----------------------------------------------------------------------|
----------------------------------------------------------------------|