Used - Take It Away Chords & Tabs

 

Take It Away Chords & Tabs

Used Chords & Tabs

Version: 5 Type: Tab

Take It Away Tab

                                   THE USED (Take it Away)      

For beginners this is an easy way to play this song.....
NO Drop D tunning or nothing standard tuning!!!

Key:
/= slide up
\= slide down
b= bend up
d= bend down
*= repeat fast (number of times will go here)
** LISTEN TO SONG TO GET THE TIMEING RIGHT**
                                INTRO
Guitar1

E [------------------------------------------------------------------------]
B [------------------------------------------------------------------------]
G [------------------------------------------------------------------------]
D [------------------------------------------------------------------------]
A [--14/---14-14/---14-14-14-14/---14/-------------------------------------]
E [--12/---12-12/---12-12-12-12/---12/-------------------------------------]

Guitar2 INTRO

E [------------------------------------------------------------------------]
B [--7b*(5 times)---7b*(5 times)---7b*(5 times)---7b*(5 times)-------------]
G [--9b*(5 times)---9b*(5 times)---9b*(5 times)---9b*(5 times)-------------]
D [------------------------------------------------------------------------]
A [------------------------------------------------------------------------]
E [------------------------------------------------------------------------]

                              Verse 1
E [------------------------------------------------------------------------]
B [------------------------------------------------------------------------]
G [------------------------------------------------------------------------]
D [------------------555----Repeat 4 times---------------------------------]
A [--22---33---555---333---------------------------------------------------]
E [--00---55---777---------------------------------------------------------]

                            Verse 2 NOT KNOWN
[ Tab from: http://www.guitartabs.cc/tabs/u/used/take_it_away_tab_ver_5.html ]
                                  CHOURS
E [------------------------------------------------------------------------]
B [------------------------------------------------------------------------]
G [------------------------------------------------------------------------]
D [------------------555----Repeat 4 times---------------------------------]
A [--22---33---555---333---------------------------------------------------]
E [--00---55---777---------------------------------------------------------]

                                  Verse not known

                                  CHOURS
E [------------------------------------------------------------------------]
B [------------------------------------------------------------------------]
G [------------------------------------------------------------------------]
D [------------------555----Repeat 4 times---------------------------------]
A [--22---33---555---333---------------------------------------------------]
E [--00---55---777---------------------------------------------------------]

                                  Bridge
E [------------------------------------------------------------------------]
B [------------------------------------------------------------------------]
G [------------------------------------------------------------------------]
D [------------------------------------------------------------------------]
A [--14*(62 times)---------------------------------------------------------]
E [--12*(63 times)---------------------------------------------------------]

                              drum and bass part

                                Chours
E [------------------------------------------------------------------------]
B [------------------------------------------------------------------------]
G [------------------------------------------------------------------------]
D [------------------555----Repeat 4 times---------------------------------]
A [--22---33---555---333---------------------------------------------------]
E [--00---55---777---------------------------------------------------------]

                               ENDING

E [------------------------------------------------------------------------]
B [------------------------------------------------------------------------]
G [------------------------------------------------------------------------]
D [------------------------------------------------------------------------]
A [--14/---14-14/---14/-14/-14/-14/---14/----------------------------------]
E [--12/---12-12/---12/-12/-12/-12/---12/----------------------------------]