Used - Take It Away Chords & Tabs

 

Take It Away Chords & Tabs

Used Chords & Tabs

Version: 3 Type: Tab 0 ratings
1 star 2 stars 3 stars 4 stars 5 stars
comments

Take It Away Tab

Band: The Used
Title: Take It Away
Album: In Love And Death
Tabber: Vich

this is my first tab so it will be so-so...sorry for that..but i figure its pretty
close...it sounds fine when i play it...

Intro: this would be easier with two guitars buti know there aren't two guitarist in
the used...but if you are fast enough you can pull this part off yourself..
e|-----------0-0-0-0-0-0-0-0-0-0-0-0-0-0-0-0-0-0-0-0-0-0-0-0-0-0-0-----|
B|-----------8-8-8-8-8-8-8-8-8-8-8-8-8-8-8-8-8-8-8-8-8-8-8-8-8-8-8-----|
G|---------------------------------------------------------------------|
D|-----------222~-----------222~-----------222~----------222~----------|
A|-----------222~-----------222~-----------222~----------222~----------|
D|-----------222~-----------222~-----------222~----------222~----------|

play this 4 times

e|-----------------------------------------------------------------|
B|-----------------------------------------------------------------|
G|-----------------------------------------------------------------|
D|-2-2--5--5-5-5----7-7----10--10-10-10----------------------------|
A|-2-2--5--5-5-5----7-7----10--10-10-10----------------------------|
D|-2-2--5--5-5-5----7-7----10--10-10-10----------------------------|


Verse
e|-0-0-0-0-0-0-0-0-0-0-0-0-0-0-0-0-0-0-0-0-0-0-0-0-0-0-0-0-0-0-0---|
B|-8-8-8-8-8-8-8-8-8-8-8-8-8-8-8-8-8-7-7-7-7-7-7-7-8-8-8-8-8-8-8---|
G|-----------------------------------------------------------------|
D|-----------------------------------------------------------------|
A|-----------------------------------------------------------------|
D|-----------------------------------------------------------------|

towards the end the quick strumming fades and he plays this...
[ Tab from: http://www.guitartabs.cc/tabs/u/used/take_it_away_tab_ver_3.html ]
e|-----------------------------------------------------------------|
B|-10--12-10--12-10--8-10------------------------------------------|
G|-------------------------9---------------------------------------|
D|-----------------------------------------------------------------|
A|-----------------------------------------------------------------|
D|-----------------------------------------------------------------|

e|------------8-----8-7--------------------------------------------|
B|-10--12-10----10------8------------------------------------------|
G|-----------------------------------------------------------------|
D|-----------------------------------------------------------------|
A|-----------------------------------------------------------------|
D|-----------------------------------------------------------------|

Pre-chorus
e|-0-0-0-0-0-0-0-0-0-0-0-0-0-0-0-0-0-0-0-0-0-0-0-0-0-0-0-0-0-0-----|
B|-8-8-8-8-8-8-8-8-8-8-8-8-8-8-8-8-8-8-8-8-8-8-8-8-8-8-8-8-8-8-----|
G|-----------------------------------------------------------------|
D|-----------------------------------------------------------------|
A|-----------------------------------------------------------------|
D|-----------------------------------------------------------------|

Chorus
e|-----------------------------------------------------------------|
B|-----------------------------------------------------------------|
G|-----------------------------------------------------------------|
D|-2-2--5--5-5-5----7-7----10--10-10-10----------------------------|
A|-2-2--5--5-5-5----7-7----10--10-10-10----------------------------|
D|-2-2--5--5-5-5----7-7----10--10-10-10----------------------------|

thats it...not as hard as i thought it would be..but if you listen to it..thats about
all...i can't tab out the bass..part..sorry..but that is my best shot...
Comments