Used - Poetic Tragedy Chords & Tabs

 

Poetic Tragedy Chords & Tabs

Used Chords & Tabs

Version: 4 Type: Tab 0 ratings
1 star 2 stars 3 stars 4 stars 5 stars
comments

Poetic Tragedy Tab

The Used
Poetic Tragedy

this is my first tab in this format... so i hope i get all the timing right. this is a
really good song and yes it is in drop d. (if you want you can still play in standard
tuning... you just wont be able to get the low power chord)

everything's in order... just read through the whole tab

key:

 / = slide up
 \ = slide down
 ~ = let it ring
 x = left hand mute

----------------------------------------------------------------------------
Guitar 1 (top staff) Guitar 2 (bottom staff)

intro (semi-clean)

   1 + 2 + 3 + 4 +   1 + 2 + 3 + 4 +   1 + 2 + 3 + 4 +   1 + 2 + 3 + 4 +
E|-----2-------2---|-----2-------0--2|-----2-------2---|-----2-------0--2|
B|--------3-------3|--------3--------|--------3-------3|--------3--------|
G|---2-------2-----|---0-------0-----|---2-------2-----|---0-------0-----|
D|-0-------0-------|-2-------2-------|-0-------0-------|-2-------2-------|
A|-----------------|-----------------|-----------------|-----------------|
D|-----------------|-----------------|-----------------|-----------------|
 |
 | 1 + 2 + 3 + 4 +   1 + 2 + 3 + 4 +   1 + 2 + 3 + 4 +   1 + 2 + 3 + 4 +
E|-----------------|-----------------|-----------------|-----------------|
B|-----(synth)-----|-----(synth)-----|-----(synth)-----|-----(synth)-----|
G|-----------------|-----------------|-----------------|-----------------|
D|-0~--------------|-2~--------------|-0~--------------|-2~--------------|
A|-----------------|-----------------|-----------------|-----------------|
D|-----------------|-----------------|-----------------|-----------------|

verse (semi-clean)

   1 + 2 + 3 + 4 +   1 + 2 + 3 + 4 +   1 + 2 + 3 + 4 +   1 + 2 + 3 + 4 +
E|-----2-------2---|-----2-------0--2|-----2-------2---|-----2-------0--2|
B|--------3-------3|--------3--------|--------3-------3|--------3--------|
G|---2-------2-----|---0-------0-----|---2-------2-----|---0-------0-----|
D|-0-------0-------|-2-------2-------|-0-------0-------|-2-------2-------|
A|-----------------|-----------------|-----------------|-----------------|
D|-----------------|-----------------|-----------------|-----------------|
 |
 | 1 + 2 + 3 + 4 +   1 + 2 + 3 + 4 +   1 + 2 + 3 + 4 +   1 + 2 + 3 + 4 +
E|-----------------|-----------------|-----------------|-----------------|
B|-----(synth)-----|-----(synth)-----|-----(synth)-----|-----(synth)-----|
G|-----------------|-----------------|-----------------|-----------------|
D|-0~--------------|-2~--------------|-0~--------------|-2~--------------|
A|-----------------|-----------------|-----------------|-----------------|
D|-----------------|-----------------|-----------------|-----------------|


   1 + 2 + 3 + 4 +   1 + 2 + 3 + 4 +   1 + 2 + 3 + 4 +   1 + 2 + 3 + 4 +
E|-----2-------2---|-----2-2-----0--2|-----2-------2---|-----2-------2--0|
B|--------3-------3|----------3------|--------3-------3|--------3--------|
G|---2-------2-----|---0-------0-----|---2-------2-----|---0-------0-----|
D|-0-------0-------|-2---------------|-0-------0-------|-2-------2-------|
A|-----------------|-----------------|-----------------|-----------------|
D|-----------------|-----------------|-----------------|-----------------|
 |
 | 1 + 2 + 3 + 4 +   1 + 2 + 3 + 4 +   1 + 2 + 3 + 4 +   1 + 2 + 3 + 4 +
E|-----------------|-----------------|-----------------|-----------------|
B|-----(synth)-----|-----(synth)-----|-----(synth)-----|-----(synth)-----|
G|-----------------|-----------------|-----------------|-----------------|
D|-0~--------------|-2~--------------|-0~--------------|-2~--------------|
A|-----------------|-----------------|-----------------|-----------------|
D|-----------------|-----------------|-----------------|-----------------|


   1 + 2 + 3 + 4 +   1 + 2 + 3 + 4 +   1 + 2 + 3 + 4 +   1 + 2 + 3 + 4 +
E|-----2-------2---|-----2-------0--2|-----2-------2---|-----2-------0--2|
B|--------3-------3|--------3--------|--------3-------3|--------3--------|
G|---2-------2-----|---0-------0-----|---2-------2-----|---0-------0-----|
D|-0-------0-------|-2-------2-------|-0-------0-------|-2-------2-------|
A|-----------------|-----------------|-----------------|-----------------|
D|-----------------|-----------------|-----------------|-----------------|
 |
 | 1 + 2 + 3 + 4 +   1 + 2 + 3 + 4 +   1 + 2 + 3 + 4 +   1 + 2 + 3 + 4 +
E|-----------------|-----------------|-----------------|-----------------|
B|-----(synth)-----|-----(synth)-----|-----(synth)-----|-----(synth)-----|
G|-----------------|-----------------|-----------------|-----------------|
D|-0~--------------|-2~--------------|-0~--------------|-2~--------------|
A|-----------------|-----------------|-----------------|-----------------|
D|-----------------|-----------------|-----------------|-----------------|


   1 + 2 + 3 + 4 +   1 + 2 + 3 + 4 +   1 + 2 + 3 + 4 +   1 + 2 + 3 + 4 +
E|-----2-------2---|-----2-------0--2|-----2-------2---|-----2-------0~--|
B|--------3-------3|--------3--------|--------3-------3|--------3----0~--|
G|---2-------2-----|---0-------0-----|---2-------2-----|---0-------0-0~--|
D|-0-------0-------|-2-------2-------|-0-------0-------|-2-------2---0~--|
A|-----------------|-----------------|-----------------|-----------------|
D|-----------------|-----------------|-----------------|-----------------|
 |
 | 1 + 2 + 3 + 4 +   1 + 2 + 3 + 4 +   1 + 2 + 3 + 4 +   1 + 2 + 3 + 4 +
E|-----------------|-----------------|-----------------|-----------------|
B|-----(synth)-----|-----(synth)-----|-----(synth)-----|-----(synth)-----|
G|-----------------|-----------------|-----------------|-----------------|
D|-0~--------------|-2~--------------|-0~--------------|-2~--------------|
A|-----------------|-----------------|-----------------|-----------------|
D|-----------------|-----------------|-----------------|-----------------|

chorus (distortion)

   1 + 2 + 3 + 4 +   1 + 2 + 3 + 4 +   1 + 2 + 3 + 4 +   1 + 2 + 3 + 4 +
E|-----------------|-----------------|-----------------|-----------------|
B|-----------------|-----------------|-----------------|-----------------|
G|-7---7-77-77-7-77|-----------------|-7---7-77-77-7-77|--------/99999999|
D|-7---7-77-77-7-77|-2---2-22-22-2-22|-7---7-77-77-7-77|-2---2-2/xxxxxxxx|
A|-5---5-55-55-5-55|-2---2-22-22-2-22|-5---5-55-55-5-55|-2---2-2/77777777|
D|-----------------|-2---2-22-22-2-22|-----------------|-2---2-2/--------|
 |
 | 1 + 2 + 3 + 4 +   1 + 2 + 3 + 4 +   1 + 2 + 3 + 4 +   1 + 2 + 3 + 4 +
E|-----------------|-----------------|-----------------|-----------------|
B|-----------------|-----------------|-----------------|-----------------|
G|-----------------|-----------------|-----------------|-----------------|
D|-0---0-00-00-0-00|-2---2-22-22-2-22|-0---0-00-00-0-00|-2---2-22-22-2-22|
A|-0---0-00-00-0-00|-2---2-22-22-2-22|-0---0-00-00-0-00|-2---2-22-22-2-22|
D|-0---0-00-00-0-00|-2---2-22-22-2-22|-0---0-00-00-0-00|-2---2-22-22-2-22|


   1 + 2 + 3 + 4 +   1 + 2 + 3 + 4 +   1 + 2 + 3 + 4 +   1 + 2 + 3 + 4 +
E|-----------------|-----------------|-----------------|-----------------|
B|-----------------|-----------------|-----------------|-----------------|
G|-7---7-77-77-7-77|-----------------|-7---7-77-77-7-77|-----------------|
D|-7---7-77-77-7-77|-2---2-22-22-2-22|-7---7-77-77-7-77|-2~--------------|
A|-5---5-55-55-5-55|-2---2-22-22-2-22|-5---5-55-55-5-55|-2~--------------|
D|-----------------|-2---2-22-22-2-22|-----------------|-2~--------------|
 |
 | 1 + 2 + 3 + 4 +   1 + 2 + 3 + 4 +   1 + 2 + 3 + 4 +   1 + 2 + 3 + 4 +
E|-----------------|-----------------|-----------------|-----------------|
B|-----------------|-----------------|-----------------|-----------------|
G|-----------------|-----------------|-----------------|-----------------|
D|-0---0-00-00-0-00|-2---2-22-22-2-22|-0---0-00-00-0-00|-2~--------------|
A|-0---0-00-00-0-00|-2---2-22-22-2-22|-0---0-00-00-0-00|-2~--------------|
D|-0---0-00-00-0-00|-2---2-22-22-2-22|-0---0-00-00-0-00|-2~--------------|

verse (semi-clean)

   1 + 2 + 3 + 4 +   1 + 2 + 3 + 4 +   1 + 2 + 3 + 4 +   1 + 2 + 3 + 4 +
E|-----2-------2---|-----2-------0--2|-----2-------2---|-----2-------2--0|
B|--------3-------3|--------3--------|--------3-------3|--------3--------|
G|---2-------2-----|---0-------0-----|---2-------2-----|---0-------0-----|
D|-0-------0-------|-2-------2-------|-0-------0-------|-2-------2-------|
A|-----------------|-----------------|-----------------|-----------------|
D|-----------------|-----------------|-----------------|-----------------|
 |
 | 1 + 2 + 3 + 4 +   1 + 2 + 3 + 4 +   1 + 2 + 3 + 4 +   1 + 2 + 3 + 4 +
E|-----------------|-----------------|-----------------|-----------------|
B|-7---7-7-7-5-5-5-|-7-7-7-7-7-5-5-5-|-7-7-7-7-7-5-5-5-|-7-7-7-7-7-5-5-5-|
G|-----------------|-----------------|-----------------|-----------------|
D|-----------------|-----------------|-----------------|-----------------|
A|-----------------|-----------------|-----------------|-----------------|
D|-----------------|-----------------|-----------------|-----------------|

[ Tab from: http://www.guitartabs.cc/tabs/u/used/poetic_tragedy_tab_ver_4.html ]
   1 + 2 + 3 + 4 +   1 + 2 + 3 + 4 +   1 + 2 + 3 + 4 +   1 + 2 + 3 + 4 +
E|-----2-------2---|-----2-------0--2|-----2-------2---|-----2-------xxxx|
B|--------3-------3|--------3--------|--------3-------3|--------3----xxxx|
G|---2-------2-----|---0-------0-----|---2-------2-----|---0-------0-xxxx|
D|-0-------0-------|-2-------2-------|-0-------0-------|-2-------2---xxxx|
A|-----------------|-----------------|-----------------|-------------xxxx|
D|-----------------|-----------------|-----------------|-------------xxxx|
 |
 | 1 + 2 + 3 + 4 +   1 + 2 + 3 + 4 +   1 + 2 + 3 + 4 +   1 + 2 + 3 + 4 +
E|-----------------|-----------------|-----------------|-------------xxxx|
B|-7---7-7-7-5-5-5-|-7-7-7-7-7-5-5-5-|-7-7-7-7-7-5-5-5-|-7-7-7-7-7-7-xxxx|
G|-----------------|-----------------|-----------------|-------------xxxx|
D|-----------------|-----------------|-----------------|-------------xxxx|
A|-----------------|-----------------|-----------------|-------------xxxx|
D|-----------------|-----------------|-----------------|-------------xxxx|

chorus (distortion)

   1 + 2 + 3 + 4 +   1 + 2 + 3 + 4 +   1 + 2 + 3 + 4 +   1 + 2 + 3 + 4 +
E|-----------------|-----------------|-----------------|-----------------|
B|-----------------|-----------------|-----------------|-----------------|
G|-7---7-77-77-7-77|-----------------|-7---7-77-77-7-77|--------/99999999|
D|-7---7-77-77-7-77|-2---2-22-22-2-22|-7---7-77-77-7-77|-2---2-2/xxxxxxxx|
A|-5---5-55-55-5-55|-2---2-22-22-2-22|-5---5-55-55-5-55|-2---2-2/77777777|
D|-----------------|-2---2-22-22-2-22|-----------------|-2---2-2/--------|
 |
 | 1 + 2 + 3 + 4 +   1 + 2 + 3 + 4 +   1 + 2 + 3 + 4 +   1 + 2 + 3 + 4 +
E|-----------------|-----------------|-----------------|-----------------|
B|-----------------|-----------------|-----------------|-----------------|
G|-----------------|-----------------|-----------------|-----------------|
D|-0---0-00-00-0-00|-2---2-22-22-2-22|-0---0-00-00-0-00|-2---2-22-22-2-22|
A|-0---0-00-00-0-00|-2---2-22-22-2-22|-0---0-00-00-0-00|-2---2-22-22-2-22|
D|-0---0-00-00-0-00|-2---2-22-22-2-22|-0---0-00-00-0-00|-2---2-22-22-2-22|


   1 + 2 + 3 + 4 +   1 + 2 + 3 + 4 +   1 + 2 + 3 + 4 +   1 + 2 + 3 + 4 +
E|-----------------|-----------------|-----------------|-----------------|
B|-----------------|-----------------|-----------------|-----------------|
G|-7---7-77-77-7-77|-----------------|-7---7-77-77-7-77|-----9-9-9-9-9-9-|
D|-7---7-77-77-7-77|-2---2-22-22-2-22|-7---7-77-77-7-77|-2~--9-9-9-9-9-9-|
A|-5---5-55-55-5-55|-2---2-22-22-2-22|-5---5-55-55-5-55|-2~--7-7-7-7-7-7-|
D|-----------------|-2---2-22-22-2-22|-----------------|-2~--------------|
 |
 | 1 + 2 + 3 + 4 +   1 + 2 + 3 + 4 +   1 + 2 + 3 + 4 +   1 + 2 + 3 + 4 +
E|-----------------|-----------------|-----------------|-----------------|
B|-----------------|-----------------|-----------------|-----------------|
G|-----------------|-----------------|-----------------|-----------------|
D|-0---0-00-00-0-00|-2---2-22-22-2-22|-0---0-00-00-0-00|-2~--------------|
A|-0---0-00-00-0-00|-2---2-22-22-2-22|-0---0-00-00-0-00|-2~--------------|
D|-0---0-00-00-0-00|-2---2-22-22-2-22|-0---0-00-00-0-00|-2~--------------|

bridge

   1 + 2 + 3 + 4 +   1 + 2 + 3 + 4 +   1 + 2 + 3 + 4 +   1 + 2 + 3 + 4 +
E|-----------------|-----------------|-----------------|-----------------|
B|-----------------|-----------------|-----------------|-----------------|
G|-6-66-66/7-7-77/9|-12-12-11~---9~--|-6-66-66/7-7-77/9|-1414141414141414|
D|-x-xx-xx/x-x-xx/x|--x--x--x~---x~--|-x-xx-xx/x-x-xx/x|--x-x-x-x-x-x-x-x|
A|-4-44-44/5-5-55/7|-10-10--9~---7~--|-4-44-44/5-5-55/7|-1212121212121212|
D|-----------------|-----------------|-----------------|-----------------|
 |
 | 1 + 2 + 3 + 4 +   1 + 2 + 3 + 4 +   1 + 2 + 3 + 4 +   1 + 2 + 3 + 4 +
E|-----------------|-----------------|-----------------|-----------------|
B|-----------------|-----------------|-----------------|-----------------|
G|-6-66-66/7-7-77/9|-----------------|-6-66-66/7-7-77/9|-----------------|
D|-x-xx-xx/x-x-xx/x|-2--2--2--2--2-2-|-x-xx-xx/x-x-xx/x|-2--2--2--2--2-2-|
A|-4-44-44/5-5-55/7|-2--2--2--2--2-2-|-4-44-44/5-5-55/7|-2--2--2--2--2-2-|
D|-----------------|-2--2--2--2--2-2-|-----------------|-2--2--2--2--2-2-|


   1 + 2 + 3 + 4 +   1 + 2 + 3 + 4 +   1 + 2 + 3 + 4 +   1 + 2 + 3 + 4 +
E|-----------------|-----------------|-----------------|-----------------|
B|-----------------|-----------------|-----------------|-----------------|
G|-6-66-66/7-7-77/9|-12-12-11~---9~--|-6-66-66/7-7-77/9|-12~-------------|
D|-x-xx-xx/x-x-xx/x|--x--x--x~---x~--|-x-xx-xx/x-x-xx/x|--x~-------------|
A|-4-44-44/5-5-55/7|-10-10--9~---7~--|-4-44-44/5-5-55/7|-10~-------------|
D|-----------------|-----------------|-----------------|-----------------|
 |
 | 1 + 2 + 3 + 4 +   1 + 2 + 3 + 4 +   1 + 2 + 3 + 4 +   1 + 2 + 3 + 4 +
E|-----------------|-----------------|-----------------|-----------------|
B|-----------------|-----------------|-----------------|-----------------|
G|-6-66-66/7-7-77/9|-----------------|-6-66-66/7-7-77/9|-----------------|
D|-x-xx-xx/x-x-xx/x|-2--2--2--2--2-2-|-x-xx-xx/x-x-xx/x|-2~--------------|
A|-4-44-44/5-5-55/7|-2--2--2--2--2-2-|-4-44-44/5-5-55/7|-2~--------------|
D|-----------------|-2--2--2--2--2-2-|-----------------|-2~--------------|

verse (semi-clean)

   1 + 2 + 3 + 4 +   1 + 2 + 3 + 4 +   1 + 2 + 3 + 4 +   1 + 2 + 3 + 4 +
E|-----2-------2---|-----2-------0--2|-----2-------2---|-----2-------2--0|
B|--------3-------3|--------3--------|--------3-------3|--------3--------|
G|---2-------2-----|---0-------0-----|---2-------2-----|---0-------0-----|
D|-0-------0-------|-2-------2-------|-0-------0-------|-2-------2-------|
A|-----------------|-----------------|-----------------|-----------------|
D|-----------------|-----------------|-----------------|-----------------|
 |
 | 1 + 2 + 3 + 4 +   1 + 2 + 3 + 4 +   1 + 2 + 3 + 4 +   1 + 2 + 3 + 4 +
E|-----------------|-----------------|-----------------|-----------------|
B|-----(synth)-----|-----(synth)-----|-----(synth)-----|-----(synth)-----|
G|-----------------|-----------------|-----------------|-----------------|
D|-0~--------------|-2~--------------|-0~--------------|-2~--------------|
A|-----------------|-----------------|-----------------|-----------------|
D|-----------------|-----------------|-----------------|-----------------|


   1 + 2 + 3 + 4 +   1 + 2 + 3 + 4 +   1 + 2 + 3 + 4 +   1 + 2 + 3 + 4 +
E|-----2-------2---|-----2-------0--2|-----2-------2---|-----------------|
B|--------3-------3|--------3--------|--------3-------3|-----------------|
G|---2-------2-----|---0-------0-----|---2-------2-----|-----------------|
D|-0-------0-------|-2-------2-------|-0-------0-------|-2~--------------|
A|-----------------|-----------------|-----------------|-----------------|
D|-----------------|-----------------|-----------------|-----------------|
 |
 | 1 + 2 + 3 + 4 +   1 + 2 + 3 + 4 +   1 + 2 + 3 + 4 +   1 + 2 + 3 + 4 +
E|-----------------|-----------------|-----------------|-----------------|
B|-----(synth)-----|-----(synth)-----|-----(synth)-----|-----(synth)-----|
G|-----------------|-----------------|-----------------|-----------------|
D|-0~--------------|-2~--------------|-0~--------------|-2~--------------|
A|-----------------|-----------------|-----------------|-----------------|
D|-----------------|-----------------|-----------------|-----------------|

chorus (distortion)

   1 + 2 + 3 + 4 +   1 + 2 + 3 + 4 +   1 + 2 + 3 + 4 +   1 + 2 + 3 + 4 +
E|-----------------|-----------------|-----------------|-----------------|
B|-----------------|-----------------|-----------------|-----------------|
G|-11~---------11/-|-12~---------12\-|-11~---------11/-|-12~---------12--|
D|--x~----------x/-|--x~----------x\-|--x~----------x/-|--x~----------x--|
A|--9~----------9/-|-10~---------10\-|--9~----------9/-|-10~---------10--|
D|-----------------|-----------------|-----------------|-----------------|
 |
 | 1 + 2 + 3 + 4 +   1 + 2 + 3 + 4 +   1 + 2 + 3 + 4 +   1 + 2 + 3 + 4 +
E|-----------------|-----------------|-----------------|-----------------|
B|-----------------|-----------------|-----------------|-----------------|
G|-----------------|-----------------|-----------------|-----------------|
D|-0~----------0---|-2~----------2---|-0~----------0---|-2~----------2---|
A|-0~----------0---|-2~----------2---|-0~----------0---|-2~----------2---|
D|-0~----------0---|-2~----------2---|-0~----------0---|-2~----------2---|


   1 + 2 + 3 + 4 +   1 + 2 + 3 + 4 +   1 + 2 + 3 + 4 +   1 + 2 + 3 + 4 +
E|-----------------|-----------------|-----------------|-----------------|
B|-----------------|-----------------|-----------------|-----------------|
G|-11~---------11/-|-12~---------12\-|-11~---------11/-|-12~-------------|
D|--x~----------x/-|--x~----------x\-|--x~----------x/-|--x~-------------|
A|--9~----------9/-|-10~---------10\-|--9~----------9/-|-10~-------------|
D|-----------------|-----------------|-----------------|-----------------|
 |
 | 1 + 2 + 3 + 4 +   1 + 2 + 3 + 4 +   1 + 2 + 3 + 4 +   1 + 2 + 3 + 4 +
E|-----------------|-----------------|-----------------|-----------------|
B|-----------------|-----------------|-----------------|-----------------|
G|-----------------|-----------------|-----------------|-----------------|
D|-0~----------0---|-2~----------2---|-0~----------0---|-2~--------------|
A|-0~----------0---|-2~----------2---|-0~----------0---|-2~--------------|
D|-0~----------0---|-2~----------2---|-0~----------0---|-2~--------------|


and thats it... both guitar parts all the way through. if you have any comments
or questions you can e-mail me at killinginthename247@yahoo.com. enjoy!
Comments