Used - Poetic Tragedy Chords & Tabs

 

Poetic Tragedy Chords & Tabs

Used Chords & Tabs

Version: 2 Type: Tab 0 ratings
1 star 2 stars 3 stars 4 stars 5 stars
comments

Poetic Tragedy Tab

Song:Poetic Tragedy
Artist:The Used
Album:(Self Titled)
Tabbed By: Eric M. (rufioyc@hotmail.com)



Intro/Verse: Keep repeating... (small changes)
e|------2--------3--------3--------0-2--|
B|----3----3---2----2---2----2---2------|
G|--------------------------------------|
D|--0--------0--------2--------2--------|
A|--------------------------------------|
E|--------------------------------------|


Chorus: You can figure out how many times to play this.
e|--------------------------------------|
B|--------------------------------------|
G|--7-7--7-7-7-7-7---9-9--9-9-9-9-9-----|
D|--7-7--7-7-7-7-7---9-9--9-9-9-9-9-----|
A|--5-5--5-5-5-5-5---7-7--7-7-7-7-7-----|
E|--------------------------------------|

[ Tab from: http://www.guitartabs.cc/tabs/u/used/poetic_tragedy_tab_ver_2.html ]
Interlude: (not exact strumming)
e|-------------------------------------------------------------|
B|-------------------------------------------------------------|
G|--6-6-6-6-6-6--7-7-7-7-7-7--111111111111-9-9-9-9-9-9-9-9-9---|
D|--6-6-6-6-6-6--7-7-7-7-7-7--111111111111-9-9-9-9-9-9-9-9-9---|
A|--4-4-4-4-4-4--5-5-5-5-5-5--9-9-9-9-9-9--7-7-7-7-7-7-7-7-7---|
E|-------------------------------------------------------------|


The outro is pretty much the same as the intro/verse.


That's about all you need to play this song, it's really not that 
hard. Sure there are probably a few mistakes but hey nobody's perfect.
If you don't understand this tab or you have comments or corrections
please email me thanks,

Enjoy,

"Poetic Tragedy"

the cup is not half empty as pescimists say
as far as he's sees nothings left in the cup
a whole cup full of nothing for him to induldge
since the voice of ambition has long since been shut up 

a singer, a writer, he's not dreaming now of going nowhere
he gave heed to nothing, and all that he was....
is just a tragedy 

so he voyages in circles
succeeds getting nowhere
and submits to the substance
that first got him there 

than in violent, frustration he cries out to God or just no one
is there a point to this madness and all that he was....
is just a tragedy 

he feels alone
his heart in his hand 
he's alone
he feels alone
I feel.... 

then on that last day he breaks
and he stood tall
and he yelled... and he takes his life
Comments