Used - On My Own Chords & Tabs

 

On My Own Chords & Tabs

Used Chords & Tabs

Version: 3 Type: Tab

On My Own Tab

Sup everyone umm im jono.h and I think no1s really gotten this tab rite so yer im gonna 
it rite!!! This song has awesome guitar and im gonna tell u boys and girls how to play 
and yer getting on to the song

band-The used
song-On my own

Tuning-Dadgbe

NOTE! Ok yer you can play this song standard tuning rite just playing the same thing but 
not using the e/d string and u can still play it but it sounds BETTER in DADGBE so yer

Intro

e------0-------0--------0--------0---0----|
b------5-------5--------5--------5---5----|
g--------6---6------------6--------6------|
d0-0--------------0-0-------0-0----------|
a0-0--------------0-0-------0-0----------|
D-0-0--------------0-0-------0-0----------|
                                           X4
e----------------------------------------|
b--00000---0-----0-----0-----------------|
g-22222222-2-----6-66666-----------------|
d-44444444-4-----7-77777-----------------|
a-44444444-4-----7-77777-----------------|
D-44444444-4-----7-77777-----------------|

Chorus umm I think?

e------------------------------------------------------------------|
b-0----0----0----0------0----0---0----0-------0----0----0----0-----|
g-11111111111111111111--22222222222222222222--11111111111111111111-|
d-22222222222222222222--44444444444444444444--22222222222222222222-|
a-22222222222222222222--44444444444444444444-22222222222222222222-|
D-22222222222222222222--44444444444444444444--22222222222222222222-|

Top of the world..    The things ive become.. maybe I what do I know.

verse-
e------0-------0--------0--------0---0---0-0-0-0-0----|
b------5-------5--------5--------5---5---5-5-5-5-5----|
g--------6---6------------6--------6-----6-6-6-6-6----| x2
d0-0--------------0-0-------0-0---------0-0-0-0-0----|
a0-0--------------0-0-------0-0---------0-0-0-0-0----|
D-0-0--------------0-0-------0-0---------0-0-0-0-0----|
[ Tab from: http://www.guitartabs.cc/tabs/u/used/on_my_own_tab_ver_3.html ]
e------0-------0--------0--------0---0----|
b------5-------5--------5--------5---5----|
g--------6---6------------6--------6------|
d0-0--------------0-0-------0-0----------|
a0-0--------------0-0-------0-0----------|
D-0-0--------------0-0-------0-0----------|
                                           X2
e----------------------------------------|
b--00000---0-----0-----0-----------------|
g-22222222-2-----6-66666-----------------|
d-44444444-4-----7-77777-----------------|
a-44444444-4-----7-77777-----------------|
D-44444444-4-----7-77777-----------------|

Chorus-
e------------------------------------------------------------------|
b-0----0----0----0------0----0---0----0-------0----0----0----0-----|
g-11111111111111111111--22222222222222222222--11111111111111111111-|
d-22222222222222222222--44444444444444444444--22222222222222222222-|
a-22222222222222222222--44444444444444444444-22222222222222222222-|
D-22222222222222222222--44444444444444444444--22222222222222222222-|

lol i love this litle bit...its strumming chords making out onnnn myyy owwnnn like the 
with the violins

e-222222-444444-555555----------------|
b-333333-333333-333333--0-----0-0-----|
g-222222-222222-222222--6-6-6-6-6-----|
d-----------------------7-7-7-7-7-----| x4
a-----------------------7-7-7-7-7-----|
D-----------------------7-7-7-7-7-----|
  onnnn  myyyyy ownnnn

umm this part
e-----
b-----
g-6--- strum as much times needed atleast 50 (not a very good guesser)
d-7---
a-7--- this is the part when bert says something idont no then screems
D-7---

Chorus-
e------------------------------------------------------------------|
b-0----0----0----0------0----0---0----0-------0----0----0----0-----|
g-11111111111111111111--22222222222222222222--11111111111111111111-|
d-22222222222222222222--44444444444444444444--22222222222222222222-|
a-22222222222222222222--44444444444444444444-22222222222222222222-|
D-22222222222222222222--44444444444444444444--22222222222222222222-|

e-222222-444444-555555----------------|
b-333333-333333-333333--0-----0-0-----|
g-222222-222222-222222--6-6-6-6-6-----|
d-----------------------7-7-7-7-7-----| x4
a-----------------------7-7-7-7-7-----|
D-----------------------7-7-7-7-7-----|
 onnnnn myyyyy ownnnnn

ARR thts gottah be the most typing & copying and pasting ive done but i didnt do it for 
i did it for the people.....but for me aswell cause i was bored as hell!!! hope you enjoy