Used - On My Own Chords & Tabs

 

On My Own Chords & Tabs

Used Chords & Tabs

Version: 1 Type: Chords 0 ratings
1 star 2 stars 3 stars 4 stars 5 stars
comments

On My Own Chords

   
I saw the other guy's tab and I hate to say it but it was WRONG.  Sorry dude!
I loved this song so much that I had to tab it "On My Own" and I guarantee it's
100% CORRECT!

Capo 2nd Fret
All fingerings are relative to capo.

Chords (he uses a cool half picking half strumming sound...it is easy to imitate
so don't worry...just start on the bass note then go directly to the highest note
and pick your way back up in a short strumming pattern)


Verse
C                           Em            G    C
See all those people on the ground.....wasting time.

     C    Em     G     C    Em    D/?
----------------------------------------------------------------(optional)
-----3-----3-----3-----3-----3-----3----------------------------
-----0-----0-----0-----0-----0-----2----------------------------
-----2-----2-----0-----2-----2-----0----------------------------
-----3-----2-----2-----3-----2-----2----------------------------
-----x-----x-----3-----x-----x-----x----------------------------

Pre-Chorus
D                                           C
Top of the world, I'm sitting here wishing, the things I've become....
[ Tab from: http://www.guitartabs.cc/tabs/u/used/on_my_own_crd.html ]
     D     C
-----2-----3----------------------------------------------------
-----3-----3----------------------------------------------------
-----2-----0----------------------------------------------------
-----0-----2----------------------------------------------------
-----------3----------------------------------------------------
-----------x----------------------------------------------------

Chorus
C C/? Em
On my own.....

     C    C/?   Em
----------------------------------------------------------------(optional)
-----3-----3-----3----------------------------------------------
-----0-----0-----0----------------------------------------------
-----2-----4-----2----------------------------------------------
-----3-----3-----2----------------------------------------------
-----x-----x-----x----------------------------------------------

Bridge
C       Em          G  C
Yea Yea Yea.......AHHHHH (my favorite part; the orchestra rocks!)

     C    Em     G     C    Em    D/?
-----0-----0-----0-----0-----0-----0----------------------------(bring out)
-----3-----3-----3-----3-----3-----3----------------------------
-----0(4)--0(4)--0-----0(4)--0(4)--2----------------------------
-----2-----2-----0-----2-----2-----0----------------------------
-----3-----2-----2-----3-----2-----2----------------------------
-----x-----x-----3-----x-----x-----x----------------------------

Verse 2X
Pre Chorus 2X
Chorus 2X

Verse 1X
Pre Chorus 2X
Chorus 4X

Bridge 1X

Pre Chorus 2X
Chorus 4X

End on C

Well I hope this tab is very useful to you.  If you have questions or corrections
please email them to me though I doubt you'll find any mistakes LOL.  This is my
favorite song in the whole wide world.  Its a great song to play live too.  I got
great response from it.
Comments