Used - Noises And Kisses Chords & Tabs

 

Noises And Kisses Chords & Tabs

Used Chords & Tabs

Version: 2 Type: Tab 0 ratings
1 star 2 stars 3 stars 4 stars 5 stars
comments

Noises And Kisses Tab

   
-----------------------------------------------------------------------------
			     Noises and Kisses - The Used
-----------------------------------------------------------------------------
Tabbed by: Johnson
Email: jaynsilentbob012@aol.com

Tuning: Drop D

Intro:
e|---------------------------------------------------------------------------
B|---------------------------------------------------------------------------
G|---555555555555555555555555555555555555555555555555555---------------------
D|---------------------------------------------------------------------------
A|---------------------------------------------------------------------------
D|---------------------------------------------------------------------------
[ Tab from: http://www.guitartabs.cc/tabs/u/used/noises_and_kisses_tab_ver_2.html ]
Verse(palm muted):
e|---------------------------------------------------------------------------
B|---------------------------------------------------------------------------
G|---------------------------------------------------------------------------
D|-------3-3h2-------3-3h2--------5-5-2--------5-5-2------5-5-5-5-5----------
A|--------------------------------------------------------5-5-5-5-5----------
D|--0-0-------3-3----------5-5-----------5-5--------------5-5-5-5-5----------

Chorus:
e|---------------------------------------------------------------------------
B|---------------------------------------------------------------------------
G|---------------------------------------------------------------------------
D|--3-3-3-3-3-3---7-7-7-7-7-7---3-3-3-3-3-3---5-5-5-5-5-5--------------------
A|--3-3-3-3-3-3---7-7-7-7-7-7---3-3-3-3-3-3---5-5-5-5-5-5--------------------
D|--3-3-3-3-3-3---7-7-7-7-7-7---3-3-3-3-3-3---5-5-5-5-5-5--------------------

Interlude thingy: 
e|---------------------------------------------------------------------------
B|---------------------------------------------------------------------------
G|---------------------------------------------------------------------------
D|--7-7-7-7-7---3-3-3-3---0-0-0-0---7-7-7-7-7---5-5-5-5-5--------------------
A|--7-7-7-7-7---3-3-3-3---0-0-0-0---7-7-7-7-7---5-5-5-5-5--------------------
D|--7-7-7-7-7---3-3-3-3---0-0-0-0---7-7-7-7-7---5-5-5-5-5--------------------

| /  slide up
| \  slide down
| h  hammer-on
| p  pull-off
| ~  vibrato
| +  harmonic
| x  Mute note
=============================================================================
Comments