Used - Maybe Memories Chords & Tabs

 

Maybe Memories Chords & Tabs

Used Chords & Tabs

Version: 2 Type: Tab 0 ratings
1 star 2 stars 3 stars 4 stars 5 stars
comments

Maybe Memories Tab

   
Band : The Used 
Song : Maybe Memories
Album : The Used
Tabber : Daniel Uliberrie

Tuning : low to high (D,A,D,G,B,e) "Drop D"

any comments email me at player13400@msn.com

The Used kick ass , this is maybe memories a very great song . 
I try to figure it out the best that i can . Theres some 
little mistakes for sure but it works pretty good like that !
And listen to the song for the strumming i didn't want to write
it all , so here it is hope you'll enjoy !

S = Strumming (listen to the song for it)

 Intro                    3X  gradually getting louder
||-------------------------|| |-------------------|
||-------------------------|| |-------------------|
||o-----------------------o|| |-------------------|
||o-----------------------o|| |---------------x-x-|
||-------------------------|| |---------------x-x-|
||--2--2-2-0-2----2-2-0-0--|| |--2--2-2-0-2---x-x-|
    PM - - - -    - - - -|

 Verse                      3X
||---------------------------|| |---------------------------|
||---------------------------|| |---------------------------|
||o-------------------------o|| |---------------------------|
||o--2--2-2-0-2----2-2-0-0--o|| |--2-2-2-2-0--2-2-0--2-2-0--|
||---2--2-2-0-2----2-2-0-0---|| |--2-2-2-2-0--2-2-0--2-2-0--|
||---2--2-2-0-2----2-2-0-0---|| |--2-2-2-2-0--2-2-0--2-2-0--|

 Chorus   _____     __     
         |1.3.4    |2.
||------|------|| |--------------------|
||------|------|| |--------------------|
||o--5--|--7--o|| |--7-----------------|
||o--5--|--7--o|| |--7---0--0-0--0-0-0-|
||---3--|--5---|| |--5---0--0-0--0-0-0-|
||------|------|| |------0--0-0--0-0-0-|
     S     S         S   PM - -  - - -|

Repeat Intro
Repeat Verse
Repeat Chorus
[ Tab from: http://www.guitartabs.cc/tabs/u/used/maybe_memories_tab_ver_2.html ]
 Bridge/Interlude          4X
||--------------------------|| |-----|-----|-----|-----|-----|-----|-----|
||----------5-5-5-5-5-5-5---|| |-----|-----|-----|-----|-----|-----|-----|
||o------------------------o|| |--4--/--5--/--7--|--4--/--7--/--9--|--5--|
||o--2--2-0----------------o|| |--4--/--5--/--7--|--4--/--7--/--9--|--5--|
||---2--2-0-----------------|| |--2--/--3--/--5--|--2--/--5--/--7--|--3--|
||---2--2-0-----------------|| |-----|-----|-----|-----|-----|-----|-----|
            PM- - - - - -|        S     S     S     S     S     S    Let ring 

 Clean           Not sure about this part
|-------------| ||-------|------||
|----8--------| ||---8---|------||
|--9----------| ||o--7---|--7--o||
|-------9-----| ||o--5---|--7--o||
|---------10--| ||-------|--5---||
|-------------| ||-------|------||
                     S      S
 (W/Dist)
 Chorus   _______          
         |1.2.3.4    
||------|------|| 
||------|------|| 
||o--5--|--7--o|| 
||o--5--|--7--o|| 
||---3--|--5---|| 
||------|------|| 
     S     S         

 Outro                     4X 
||--------------------------|| |----------------|
||--------------------------|| |----------------|
||o------------------------o|| |----------------|
||o------------------------o|| |--2--2-2-2-0-2--|
||--------------------------|| |--2--2-2-2-0-2--|
||---2--2-2-0-2---2-2-0-0---|| |--2--2-2-2-0-2--|
     PM - - - -   - - - -|

                           8X
||--------------------------|| |------|
||--------------------------|| |------|
||o------------------------o|| |------|
||o--2--2-2-0-2---2-2-0-0--o|| |--2\--|
||---2--2-2-0-2---2-2-0-0---|| |--2\--|
||---2--2-2-0-2---2-2-0-0---|| |--2\--|

Thats it ! Listen to the song and maybe your gonna change some
little thing like the palm mute and all cauz thats some things
that im not 100% sure of it , anyway ive tried so like it or not !
Comments