Used - Let It Bleed Chords & Tabs

 

Let It Bleed Chords & Tabs

Used Chords & Tabs

Version: 3 Type: Tab

Let It Bleed Tab

   
Tabbed by: Joey D
Email: JADiBuono@aol.com
Note: *** This song is played in C *** I only did the first guitar, I didn't do any of
the leads. Great song.

~ = Let Ring
p = Pull Off
h = Hammer On
/ = Slide


Tuning: C

Intro - Play It Twice

|--------------------------------------------------------------------------|
|--5-5-5----------3--3-----8-8---------8-8---------------------------------|
|--5-5-5----------4--4-----9-9---------9-9---------------------------------|
|--3------5--5--5--------7-------0-0-0-------7p0-3-------------------------|
|--3------5--5--5--------7-------0-0-0-------7p0-3-------------------------|
|--3------5--5--5--------7-------0-0-0-------7p0-3-------------------------|

Verse - Basically the same as the intro

|--------------------------------------------------------------------------|
|--5-5---3-3---8-8---------------------------------------------------------|
|--5-5---4-4---9-9---------------------------------------------------------|
|--3-3-5-5-5-7-7-7-0-0-0-0-0-7p0-5p0---------------------------------------|
|--3-3-5-5-5-7-7-7-0-0-0-0-0-7p0-5p0---------------------------------------|
|--3-3-5-5-5-7-7-7-0-0-0-0-0-7p0-5p0---------------------------------------|

Chorus:

|--------------------------------------------------------------------------|
|--5-5-5-3-3-3--------------5-5-5-3-3-3--------------5~-3/0----------------|
|--5-5-5-4-4-4--------------5-5-5-4-4-4--------------5~-4/0----------------|
|--3-3-3-5-5-5-0-0-0-0-0-0--3-3-3-5-5-5-0-0-0-0-0-0--3~-5/0----------------|
|--3-3-3-5-5-5-0-0-0-0-0-0--3-3-3-5-5-5-0-0-0-0-0-0--3~-5/0----------------|
|--3-3-3-5-5-5-0-0-0-0-0-0--3-3-3-5-5-5-0-0-0-0-0-0--3~-5/0----------------|

Second Verse:

|--------------------------------------------------------------------------|
|--5---3-3/0---5---3-3/0---5---3-3/0---5-5-5---3-3-3---8-8-8---------------|
|--5---4-4/0---5---4-4/0---5---4-4/0---5-5-5---4-4-4---9-9-9---------------|
|--3-5-5-5/0---3-5-5-5/0---3-5-5-5/0---3-----5-5-----7-7-----0-0-0-0-0-0---|
|--3-5-5-5/0---3-5-5-5/0---3-5-5-5/0---3-----5-5-----7-7-----0-0-0-0-0-0---|
|--3-5-5-5/0---3-5-5-5/0---3-5-5-5/0---3-----5-5-----7-7-----0-0-0-0-0-0---|


|--------------------------------------------------------------------------|
|--5-5-5--3-3-3------------------------------------------------------------|
|--5-5-5--4-4-4------------------------------------------------------------|
|--3------5-----0-0-0-0-0-0------------------------------------------------|
|--3------5-----0-0-0-0-0-0------------------------------------------------|
|--3------5-----0-0-0-0-0-0------------------------------------------------|

Second Chorus:

|--------------------------------------------------------------------------|
|--5-5-5-3-3-3--------------5-5-5-3-3-3--------------5~-3/0----------------|
|--5-5-5-4-4-4--------------5-5-5-4-4-4--------------5~-4/0----------------|
|--3-3-3-5-5-5-0-0-0-0-0-0--3-3-3-5-5-5-0-0-0-0-0-0--3~-5/0----------------|
|--3-3-3-5-5-5-0-0-0-0-0-0--3-3-3-5-5-5-0-0-0-0-0-0--3~-5/0----------------|
|--3-3-3-5-5-5-0-0-0-0-0-0--3-3-3-5-5-5-0-0-0-0-0-0--3~-5/0----------------|

Interlude: Repeat this four times


|--------------------------------------------------------------------------|
|--------------------------------------------------------------------------|
|---14-14-14-10-10-10--12--12--12--7-7-7-7-7-7-----------------------------|
|----x--x--x--x--x--x---x---x---x--x-x-x-x-x-x-----------------------------|
|---12-12-12--8--8--8--10--10--10--5-5-5-5-5-5-----------------------------|
|--------------------------------------------------------------------------|

Then...
[ Tab from: http://www.guitartabs.cc/tabs/u/used/let_it_bleed_tab_ver_3.html ]
|--------------------------------------------------------------------------|
|--------------------------------------------------------------------------|
|--------------------------------------------------------------------------|
|--7-7-7-3-3-3-5-5-5-0-0-0-0-0-0--7-7-7-3-3-3-5-5-5-0-0-0-0-0-0------------|
|--7-7-7-3-3-3-5-5-5-0-0-0-0-0-0--7-7-7-3-3-3-5-5-5-0-0-0-0-0-0------------|
|--7-7-7-3-3-3-5-5-5-0-0-0-0-0-0--7-7-7-3-3-3-5-5-5-0-0-0-0-0-0------------|


|--------------------------------------------------------------------------|
|--------------------------------------------------------------------------|
|--------------------------------------------------------------------------|
|--7-7-7-3-3-3-5-5-5-0-0-0-0-0-0-7-3-5-0~----------------------------------|
|--7-7-7-3-3-3-5-5-5-0-0-0-0-0-0-7-3-5-0~----------------------------------|
|--7-7-7-3-3-3-5-5-5-0-0-0-0-0-0-7-3-5-0~----------------------------------|

After the interlude, there is kind of another interlude:


|--------------------------------------------------------------------------|
|--5---5---5----5--------------5---5---5-----------------------------------|
|--5---5---5----5--------------5---5---5-----------------------------------|
|--3-3---3----3-----3h5-5-5-5--3-3---3---3h5-5-5---------------------------|
|--3-3---3----3-----3h5-5-5-5--3-3---3---3h5-5-5---------------------------|
|--3-3---3----3-----3h5-5-5-5--3-3---3---3h5-5-5---------------------------|

Back to the verse:


|--------------------------------------------------------------------------|
|--5-5---3-3---8-8--------------------5-5-----8-8--------------------------|
|--5-5---4-4---9-9--------------------5-5-----9-9--------------------------|
|--3-3-5-5-5-7-7-7-0-0-0-0-0-7p0-5p0--3-3h5-5h7-7-7p5h7--------------------|
|--3-3-5-5-5-7-7-7-0-0-0-0-0-7p0-5p0--3-3h5-5h7-7-7p5h7--------------------|
|--3-3-5-5-5-7-7-7-0-0-0-0-0-7p0-5p0--3-3h5-5h7-7-7p5h7--------------------|

Last chorus:

|---------------------------------------------------------------------------|
|--5-5-5-5-5-5-3-3-3-3-3-3-------------5-5-5-5-5-5-3-3-3-3-3-3-8-8-8-8-8-8--|
|--5-5-5-5-5-5-4-4-4-4-4-4-------------5-5-5-5-5-5-4-4-4-4-4-4-9-9-9-9-9-9--|
|--3-3-3-3-3-3-5-5-5-5-5-5-0-0-0-0-0-0-3-3-3-3-3-3-5-5-5-5-5-5-7-7-7-7-7-7--|
|--3-3-3-3-3-3-5-5-5-5-5-5-0-0-0-0-0-0-3-3-3-3-3-3-5-5-5-5-5-5-7-7-7-7-7-7--|
|--3-3-3-3-3-3-5-5-5-5-5-5-0-0-0-0-0-0-3-3-3-3-3-3-5-5-5-5-5-5-7-7-7-7-7-7--|

|--------------------------------------------------------------------------|
|--5-5-5-5-5-5-3-3-3-3-3-3-------------5-5-5-5-5-5-3/0---------------------|
|--5-5-5-5-5-5-4-4-4-4-4-4-------------5-5-5-5-5-5-4/0---------------------|
|--3-3-3-3-3-3-5-5-5-5-5-5-0-0-0-0-0-0-3-3-3-3-3-3-5/0---------------------|
|--3-3-3-3-3-3-5-5-5-5-5-5-0-0-0-0-0-0-3-3-3-3-3-3-5/0---------------------|
|--3-3-3-3-3-3-5-5-5-5-5-5-0-0-0-0-0-0-3-3-3-3-3-3-5/0---------------------|

End with this:

|--------------------------------------------------------------------------|
|--------------------------------------------------------------------------|
|--------------------------------------------------------------------------|
|--7-7-7-3-3-3-5-5-5-0-0-0-0-0-0--7-7-7-3-3-3-5-5-5-0-0-0-0-0-0------------|
|--7-7-7-3-3-3-5-5-5-0-0-0-0-0-0--7-7-7-3-3-3-5-5-5-0-0-0-0-0-0------------|
|--7-7-7-3-3-3-5-5-5-0-0-0-0-0-0--7-7-7-3-3-3-5-5-5-0-0-0-0-0-0------------|


|--------------------------------------------------------------------------|
|--------------------------------------------------------------------------|
|--------------------------------------------------------------------------|
|--7-7-7-3-3-3-5-5-5-0-0-0-0-0-0-7-3-5-0~----------------------------------|
|--7-7-7-3-3-3-5-5-5-0-0-0-0-0-0-7-3-5-0~----------------------------------|
|--7-7-7-3-3-3-5-5-5-0-0-0-0-0-0-7-3-5-0~----------------------------------|