Used - Im A Fake Chords & Tabs

 

Im A Fake Chords & Tabs

Used Chords & Tabs

Version: 2 Type: Tab 0 ratings
1 star 2 stars 3 stars 4 stars 5 stars
comments

Im A Fake Tab

Tuning: Drop C (low to high DAFCGC)

Intro
D|--------------------------------------------------------------|
A|--------------------------------------------------------------|
F|11-11-11-----9--9--9--9--9--------------------9-9-9-9-9-------|
C|11-11-11----11-11-11-11-11----7-7-7-7-7-7-7-7-7-7-7-7-7-------|
G|-9--9--9-x2--9--9--9--9--9----5-5-5-5-5-5-5-5-5-5-5-5-5-------|
C|--------------------------------------------------------------|  (x2)

Heavy Part 
D|--------------------------------------------------------------|
A|--------------------------------------------------------------|
F|66666666--99999999--11-11-11-11-11-11-11-11-11-11-11-11--9999-|
C|44444444--77777777---x--x--x--x--x--x--x--x--x--x--x--x--xxxx-|
G|44444444--77777777---9--9--9--9--9--9--9--9--9--9--9--9--7777-|
C|44444444--77777777---0--0--0--0--0--0--0--0--0--0--0--0--0000-|

D|--------------------------------------------------------------|
A|--------------------------------------------------------------|
F|66666666--99999999--11~~~-11~~~-------------------------------|
C|44444444--77777777---x-----x----------------------------------|
G|44444444--77777777---9~~~--9~~~-------------------------------|
C|44444444--77777777---0~~~--0~~~-------------------------------|

(2nd Guitar - Heavy Part)
D|17-----------------------17-----------------------------------|
A|--14---15-------------------------15--------------------------|
F|-----------14~~---------------14---------14~~~~---------------|
C|--------------------------------------------------------------|
G|--------------------------------------------------------------|
C|--------------------------------------------------------------|

Verse (1st Part)
D|--------------------------------------------------------------|
A|--------------------------------------------------------------|
F|11~~~--11~~~---7~~~---11~~-11~~---7~~------1414141414141414---|
C|11~~~--11~~~---7~~~---11~~-11~~---7~~------1414141414141414---|
G|-9~~~---9~~~---5~~~----9~~--9~~---5~~------1212121212121212---|
C|--------------------------------------------------------------|

2nd Part
D|--------------------------------------------------------------|
A|--------------------------------------------------------------|
F|11-11-11-----9--9--9--9--9--------9-9-----9-9-----------------|
C|11-11-11----11-11-11-11-11----7-7-7-7-7-7-7-7-----------------|
G|-9--9--9-x2--9--9--9--9--9----5-5-5-5-5-5-5-5-x2--------------|
C|--------------------------------------------------------------|

 Pre Chorus
D|--------------------------------------------------------------|
A|13-13-13-13-13-13-13 13--\-14-14-14-14-14-16-16-16------------|
F|-0--0--0--0--0--0--0--0--\--0--0--0--0--0--0--0--0------------|
C|--------------------------------------------------------------|
G|--------------------------------------------------------------|
C|--------------------------------------------------------------|

**1st Chorus is the Heavy Part**
[ Tab from: http://www.guitartabs.cc/tabs/u/used/im_a_fake_tab_ver_2.html ]
Pre - 2nd Verse : 1st Guitar is the same as 2nd Guitar of Heavy Part
2nd Guitar ( Pre - Verse )
D|--------------------------------------------------------------|
A|--------------------------------------------------------------|
F|23~~14~~-19~18~--19-18~--14--11~-9~~----19~~~-----------------|
C|-x---x~~--x~-x----x--x----x---x--x-------x~~~-----------------|
G|21~~12~~-17~16~--17-16~--12---9~-7~~----17~~~-----------------|
C|--------------------------------------------------------------|

2nd Verse - 1st part just bass - then 2nd part is the same as intro only a bit
different with the strumming and the quick little pauses... just before you play
the intro part, palm mute then strum the Octive CHord on the 12th fret of the 5th
and 3rd String...  play along with the song and you'll figure it out. 

Pre-Chorus: same thing 

1st Part of Chorus the same as the Intro

2nd Part of Chorus is the same only instead of strumming its just 4 hard strums on
each note... you'll get what i mean when you hear the song.

Bridge
D|--------------------------------------------------------------|
A|--------------------------------------------------------------|
F|23~~14~~-19~18~--19-18~--14--11~-9~~----19~~~-----------------|
C|-x---x~~--x~-x----x--x----x---x--x-------x~~~-----------------|
G|21~~12~~-17~16~--17-16~--12---9~-7~~----17~~~-----------------|
C|--------------------------------------------------------------|(x2)



D|--------------------------------------------------------------|
A|--------------------------------------------------------------|
F|23~-14~---21~~19~~18~~16~~18~~11~~9~~---19~~~-----------------|
C|-x---x-----x---x---x---x---x---x--x------x--------------------|
G|21~-12~---19~~17~~16~~14~~16~~~9~~7~~---17~~~-----------------|
C|--------------------------------------------------------------|

" I'm Telling you I'm a fake..."  (Follow with beat of the song)
D|--------------------------------------------------------------|
A|--------------------------------------------------------------|
F|11-11-11------------------------------------------------------|
C|-x--x--x------------------------------------------------------|
G|-9--9--9-(etc)------------------------------------------------|
C|--------------------------------------------------------------|

Chrous - Heavy part

  Outro
D|---------------------------0~~~-------------------------------|
A|---------------------------0~~~-------------------------------|
F|66-66----66-66----66-66----7~~~------66-66----2-2-2---2~~-----|
C|44-44----44-44----44-44--------------44-44----0-0-0---0~~-----|
G|44-44----44-44----44-44--------------44-44----0-0-0---0~~-----|
C|44-44----44-44----44-44--------------44-44----0-0-0---0~~-----|


There you go guys... i took time perfecting this song, and i honestly think that's
exactly how Quinn plays it cause it sounds identical to the song. I know a bunch of
other song by The Used dead on so if you want those tabs just ask me and i'll see if
i got time on my hands to write it out. SO enjoy and rock on.. this'll make you sound
like a pro. 

P.S. Tell me what you think about it.
Comments