Used - I Caught Fire In Your Eyes Chords & Tabs

 

I Caught Fire In Your Eyes Chords & Tabs

Used Chords & Tabs

Version: 2 Type: Bass Tab 0 ratings
1 star 2 stars 3 stars 4 stars 5 stars
comments

I Caught Fire In Your Eyes Bass Tab

Intro
g/-------------------------------------------------------------------------|
d/-------------------------------------------------------------------------|
a/4(x8)-2(x8)------------222222222222-000000000000-44444444-22222222-------|
e/------------00000000000--------------------------------------------------|
Verse:
g/-------------------------------------------------------------------------|
d/------------9-8-6-------6h77---------------------------------------------|
a/44-44-77-77-------00-00-------00-000002-44-444444-77-777777-00-000000----|
e/-------------------------------------------------------------------------|

g/-------------------------------------------------------------------------|
d/-------------------------------------------------------------------------|
a/00-000002-44-444444-77-777777-00--00---77777777--------------------------|
e/-------------------------------------------------------------------------|

Chorus x2:
g/-------------------------------------------------------------------------|
d/--------------------------------------------9-999------------------------|
a/------------22222222222-00000000000-4-444-4------------------------------|
e/00000000000--------------------------------------------------------------|

g/-------------------------------------------------------------------------|
d/-------------------------------------------------------------------------|
a/------------2222222222-00000000000-44444444444-2222222222----------------|
e/00000000000--------------------------------------------------------------|

Verse:
g/-------------------------------------------------------------------------|
d/-------------------------------------------------------------------------|
a/44--77-00-00-00-00----4444444444444444-7777777777777777-00-00-00-00-15\--|
e/-------------------4/----------------------------------------------------|

g/-------------------------------------------------------------------------|
d/-------------------------------------------------------------------------|
a/------15(x4)-13(x4)------------------------------------------------------|
e/0-0-0--------------------------------------------------------------------|

Chorus:
g/-------------------------------------------------------------------------|
d/--------------------------------------------9-999------------------------|
a/------------22222222222-00000000000-4-444-4------------------------------|
e/00000000000--------------------------------------------------------------|
[ Tab from: http://www.guitartabs.cc/tabs/u/used/i_caught_fire_in_your_eyes_btab_ver_2.html ]
g/-------------------------------------------------------------------------|
d/-------------------------------------------------------------------------|
a/------------22222222222-00000000000-44444444-22222222--------------------|
e/00000000000--------------------------------------------------------------|

g/-------------------------------------------------------------------------|
d/-------------------------------------------------------------------------|
a/-------------------------------------------------------------------------|
e/00-4/-00-6/--------------------------------------------------------------|

Bridge:
g/--------------------------------------------------------------------|
d/--------------------------------------------------------------------|
a/44444-42-00000-02-------------------44444-42-00000-02---------------|
e/------------------00000000-77777777---------------------------------|

g/--------------------------------------------------------------------|
d/--------------------------------------------------------------------|
a/------14-12-10-11-12-------14-12-10-11-12---------------------------|
e/0-0-0----------------0-0-0------------------------------------------|

Chorus x2:
g/-----------------------------------------------------------|
d/-----------------------------------------9-999-------------|
a/------------222222222-0000000000-4-444-4-------------------|
e/00000000000------------------------------------------------|

g/-------------------------------------------------------------------------|
d/-------------------------------------------------------------------------|
a/------------22222222222-00000000000-44444444-22222222--------------------|
e/00000000000--------------------------------------------------------------|

then play:
g/--------------------------------------------------------------------------|
d/--------------------------------------------------------------------------|
a/----------14-13-11-12-14-222222222-14-13-11-12-14-000000000-14-13-11-12-14|
e/000000000-----------------------------------------------------------------|

g/--------------------------------------------------------------------------|
d/--------------13(x16)-12(x16)---------------------------------------------|
a/------------------------------4(x16)--------------------------------------|
e/4444-x2222-1/------------------------00-4/-00-6/--------------------------|

g/--------------------------------------------------------------------------|
d/--------------------------------------------------------------------------|
a/---------4-----------------1----------------------------------------------|
e/0-----------------0-----------------0-------------------------------------|
Comments