Used - Buried Myself Alive Chords & Tabs

 

Buried Myself Alive Chords & Tabs

Used Chords & Tabs

Version: 3 Type: Bass Tab 0 ratings
1 star 2 stars 3 stars 4 stars 5 stars
comments

Buried Myself Alive Bass Tab

   
------------------------------------------------------------------------------
			     Buried myself alive - The used
-------------------------------------------------------------------------------

Tabbed By:Matt
e-mail: mattbagley@hotmail.com
Tuning:Standard tuning

INTRO/CHORUS

G|--------------------------------------------------------------------------|
D|--------------------------------------------------------------------------|
A|--------------------3(15)-5(15)-------------------------------------------|
E|-3(12)--REST--0(18)-------------------------------------------------------|

VERSE

G|--------------------------------------------------------------------------|
D|--------------------------------------------------------------------------|
A|-10-10101010-10-101010-12\10-7-7777-7-777-7-3-3333-4-5-5555---------------|
E|--------------------------------------------------------------------------|

PRE-CHORUS

G|-----------------------------------------------------------------------------|
D|-----------------------------------------------------------------------------|
A|-----5-------5-----5---------------------------------------------------------|
E|-3333-3--3333-3-333-3--33333333----------------------------------------------|

CHORUS

G|---------------------------------------------------------------------------|
D|---------------------------------------------------------------------------|
A|--------------------3(15)-5(15)--------------------------------------------|
E|-3(12)--REST--0(18)--------------------------------------------------------|

VERSE

G|---------------------------------------------------------------------------|
D|---------------------------------------------------------------------------|
A|-10-10101010--10-101010-12\10-7-7777-7-777-3-3333-4-5-5555-----------------|
E|---------------------------------------------------------------------------|

PRE-CHORUS
[ Tab from: http://www.guitartabs.cc/tabs/u/used/buried_myself_alive_btab_ver_3.html ]
G|------------------------------------------------------------------------------|
D|------------------------------------------------------------------------------|
A|-----5------5------5----------------------------------------------------------|
E|-3333-3-3333-3-3333-3-333333333-----------------------------------------------|

CHORUS

G|--------------------------------------------------------------------------|
D|--------------------------------------------------------------------------|
A|--------------------3(15)-5(15)-------------------------------------------|
E|-3(12)--REST--0(18)-------------------------------------------------------|

BRIDGE

G|--------------------------------------------------------------------------|
D|--------------------------------------------------------------------------|
A|-7-777-5-555-3-333-3333--7-777-5-555-3-333-3333-3333 (REST)---------------|
E|--------------------------------------------------------------------------|

BRIDGE  "with my foot on your neck"

G|--------------------------------------------------------------------------|
D|--------------------------------------------------------------------------|
A|-7-777-5-555-3-333-5555-7-777-5-555-3-333-5555-7-777-5-555-3-333-5555-----|
E|--------------------------------------------------------------------------|

G|--------------------------------------------------------------------------|
D|-7-777-5-555-3-333-5555-7-777-5-555-3-333-5555-7-777-5-555-3-333-5555-----|
A|--------------------------------------------------------------------------|
E|--------------------------------------------------------------------------|

CHORUS

G|--------------------------------------------------------------------------|
D|--------------------------------------------------------------------------|
A|--------------------3(15) 5(15)-------------------------------------------|
E|-3(12)--REST--0(18)-------------------------------------------------------|

My first ever tab, on one of my most favorite songs. If you have any corrections (which 
sure there will be) email me
hope you like it.
Rock on

| /  slide up
| \  slide down
| h  hammer-on
| p  pull-off
| ~  vibrato
| +  harmonic
| x  Mute note
Comments