Used - Buried Myself Alive Chords & Tabs

 

Buried Myself Alive Chords & Tabs

Used Chords & Tabs

Version: 2 Type: Bass Tab 0 ratings
1 star 2 stars 3 stars 4 stars 5 stars
comments

Buried Myself Alive Bass Tab

   
Band: The Used
Song:  Buried Myself Alive
Tuning: Standard (EADG)

Intro:
G|-0-| fade it in..
D|-0-|
A|-0-|
E|-0-|

Chorus:
G|-----------------------|
D|-----------------------|
A|--------3>-5>----------|
E|-5>-2>-----------------|

Verse part 1:
G|---------------------------------------------------------------------|
D|---------------------------------------------------------------------|
A|-10-10-1010\7/-10-10-1010/12\-7-7-77\5/-7-7-77/10\3-3-33/5-5-55/10~ -|
E|---------------------------------------------------------------------|
[ Tab from: http://www.guitartabs.cc/tabs/u/used/buried_myself_alive_btab_ver_2.html ]
Verse part 2:
G|----------------------------------------------------------------|
D|----------------------------------------------------------------|
A|-10-10-1010\7/-10-10-1010/12\-7-7-77\5/-7-7-77/10\3-3-33/5-5-55/|
E|----------------------------------------------------------------|

Pre chorus:
G|------------------|
D|-----12------12---|x2
A|1010---10-10---10-|
E|------------------|

Chorus:  x1
Verse part:  2 x1
Pre chorus:  x2
Chorus: x1

Bridge part 1:
G|--------------------------------------------------------------------|
D|--------------------------------------------------------------------|x1
A|7-7-7-5-5-5-3-3-3-3-3-3-7-7-7-5-5-5-3-3-3-3-3-3-3~-------33----/10\-|
E|--------------------------------------------------------------------|


G|------------------------|
D|-------5-5-5------------|x4
A|7-7-7-------3-3-3-5-5-5-|
E|------------------------|

Bridge part 2:
G|------------------------|
D|------------------------| x 2
A|7-7-7-5-5-5-3-3-3-5-5-5-|
E|------------------------|

Chorus:  x2

Thats about it I think...
Comments