Used - Bulimic Chords & Tabs

 

Bulimic Chords & Tabs

Used Chords & Tabs

Version: 1 Type: Tab 0 ratings
1 star 2 stars 3 stars 4 stars 5 stars
comments

Bulimic Tab

   
The Used - Bulimic 
By:Andrew (Guitarguyx182@belg88.com)
[ Tab from: http://www.guitartabs.cc/tabs/u/used/bulimic_tab.html ]
Drop D 
 
Intro/Verse                            
e|-----------------------------------------------------------------|
B|-----------------------------------------------------------------|
G|---8-8-8-9-8-8--8-8-9-8------------------------------------------|
D|---7-7-7-7-7-7--7-7-7-7---13-13-13-14-13--13-13-13-14-13---------|
A|---7-7-7-7-7-7--7-7-7-7---11-11-11-11-11--11-11-11-11-11---------|
D|---7-7-7-7-7-7--7-7-7-7---11-11-11-11-11--11-11-11-11-11---------|
                                                            
Chorus                    
e|--0-0------0-0------0-------0--0-------0--0-------0--0-----------|
B|--0-0------0-0------0-------0--0-------0--0-------0--0-----------|
G|--9-9------9-9------9-9----13-13------13-13------13-13-----------|
D|--7-7------7-7------7-7----11-11------11-11------11-11-----------|
A|--7-7------7-7------7-7----11-11------11-11------11-11-----------|
D|--7-7------7-7------7-7----11-11------11-11------11-11-----------| 
 
Bridge
e|--0--0--0------------------0---0----0----0-----0----------0------|
B|--0--0----0---0---0--0--------0---0----0-----0-----0--0-------0--|
G|--8--9------9---8--8---8-----9---8---9-----8----8------9----8----|
D|-------------------------9---------------------------------------|
A|-----------------------------------------------------------------|
D|-----------------------------------------------------------------|
Comments