Used - Back Of Your Mouth Chords & Tabs

 

Back Of Your Mouth Chords & Tabs

Used Chords & Tabs

Version: 2 Type: Tab 0 ratings
1 star 2 stars 3 stars 4 stars 5 stars
comments

Back Of Your Mouth Tab

   
Band - The Used
Song - Back of Your Mouth
Album - In Love & Death
Tuning - Drop D


Intro

"Yeah,Yeah..."

e:-----------------------                e:-------------------:
b:-----------------------                b:-------------------:
g:-----7-7/10-10-10-10-10                g:-13/12-12-10-10-10-:
d:-3-3/5-5/8---0--0--0--0   x3 then      d:-11/10-10--8--8--8-:
a:-3-3/5-5/8---0--0--0--0                a:-11/10-10--8--8--8-:
D:-3-3/5-5/8---0--0--0--0                D:-11/10-10--8--8--8-:


Verse Part 1

"The worms they crack like words and..."

e:------------------------:
b:------------------------:
g:------------------------:   
d:-5~-----------5-5---5-5-:
a:-5~-let ring--5-5---5-5-:
D:-5~-----------5-5---5-5-:

Verse Part 2
[ Tab from: http://www.guitartabs.cc/tabs/u/used/back_of_your_mouth_tab_ver_2.html ]
"Scabs & ashes, the Back of your Mouth..."
e:---------:
b:---------:
g:---------:
d:-2-3-4-5-:
a:-2-3-4-5-:
d:-2-3-4-5-:


Chorus

"In this exchange..."

e:---------------------------------:
b:-----------------------------3-3-:
g:-7-7-7-7-5-5-5-5-4-4-4-4-3-3-2-2-:
d:-5-5-5-5-3-3-3-3-2-2-2-2-1-1-0-0-:
a:-5-5-5-5-3-3-3-3-2-2-2-2-1-1-0-0-:
d:-5-5-5-5-3-3-3-3-2-2-2-2-1-1-0-0-: 

Back to Intro

Bridge

"You cant kill..."

e:---------------------------------------------------------:
b:---------------------------------------------------------:
g:---------------------------------------------------------:
d:-5~-4~-3~-4~------------5-5--5-5--4-4--4-4--3-3--3-3--2~-:
a:-5~-4~-3~-4~-x3 then----5-5--5-5--4-4--4-4--3-3--3-3--2~-:
D:-5~-4~-3~-4~------------5-5--5-5--4-4--4-4--3-3--3-3--2~-:

Back to Chorus

Any Suggestions..........Doms_BeerCo@Hotmail.com
Comments