Used - 801 Underground Chords & Tabs

 

801 Underground Chords & Tabs

Used Chords & Tabs

Version: 1 Type: Bass Tab 0 ratings
1 star 2 stars 3 stars 4 stars 5 stars
comments

801 Underground Bass Tab

Song: 801 Underground
Band: The Used
Bassist: Jeph Howard
Tabbed by Joe Ludwig (bassbeats098)
E-mail: Reggaempire94@yahoo.com

Hi, this song isn't on any cd's so this is for the people who downloaded it.

Standard Tuning

Intro/Verse (this part is played through most of the song and is played pretty fast)

G|--------------------------|
D|---5-66-8-----------------|
A|-6-----------5-------3----|
E|----------66---6--44---4--|
[ Tab from: http://www.guitartabs.cc/tabs/u/used/801_underground_btab.html ]
After Intro(Pre verse I guess you can call it):

G|-----------------|
D|-----------------|
A|-6~------6~------|
E|----6-4~----6-4~-|

Chorus:

G|-------------|
D|-------------|
A|------6------|  [ ]= only play the first time
E|-[4~]---6-4~-|

Key Change:

G|--------------------------|
D|---7-88-10----------------|
A|-8------------7-------5---|
E|-----------88---8--66---6-|

That's it, i'm just gonna show you how to play it, and you can figure out where to play
it and how many times to play it on your own.
Comments