Us Bombs - Yer Country Chords & Tabs

 

Yer Country Chords & Tabs

Us Bombs Chords & Tabs

Version: 1 Type: Tab 0 ratings
1 star 2 stars 3 stars 4 stars 5 stars
comments

Yer Country Tab

U.S. BOMBS      YER COUNTRY
FROM THE ALBUM: BACK AT THE LAUNDROMAT

Standard tuning
[ Tab from: http://www.guitartabs.cc/tabs/u/us_bombs/yer_country_tab.html ]
e ---------------------------------------------------
B ------------------------------0-2------------------
G ------------------------2-2-2-----2----------------
D ---------2--0-0-0-4-2-----------------0-0-0-4-2----     x2  On the second 
A 0-0-0-2-4--4------------------------4--------------     time, the following
E ---------------------------------------------------  comes after: 


e ----------------
B ----------------
G 4----4----4----4
D 2----2----2----2    }let this ring
A ----------------
E ----------------

there you have it,
I'm working on the rest.
Questions? Email me at apedailejw@gaggle.net

E  N  J  O  Y  !
Comments