Uriah Heep - Rainbow Demon Chords & Tabs

 

Rainbow Demon Chords & Tabs

Uriah Heep Chords & Tabs

Version: 1 Type: Bass Tab 0 ratings
1 star 2 stars 3 stars 4 stars 5 stars
comments

Rainbow Demon Bass Tab

Artist:Uriah Heep
Title :Rainbow Demon
Album : Demons and Wizards(1972)
Tuning:EADG
Tabber:Justin van Uum

Intro/First Main Riff:
G--------------------------------------------------|
D--------------------------------------------------|
A-3--------3--------3--------3-------and-on-and-on-|
E--------------------------------------------------|
[ Tab from: http://www.guitartabs.cc/tabs/u/uriah_heep/rainbow_demon_btab.html ]
Chorus:
G---------------5--5----------5-5-----|
D-------------5--5-----------5-5------|
A-6--6-8-6-3---------1-1-3-3----------|
E-------------------------------------|

2nd Main Riff:
G-------------------------------|
D------------------------------:|
A-3----3----3----3----1----1---:|
E-------------------------------|

Solo Riff:
G------------------------------|
D----------1---------1--1-----:|
A-3-3-3-1-3--3-----3------1---:|
E------------------------------|

This is the little variation of Gary Thain in the last chorus:
G---------------|
D---------------|
A-6-6-8--0-1-3--|
E---------------|

Have Fun!
Comments