Uriah Heep - I Wanna Be Free Chords & Tabs

 

I Wanna Be Free Chords & Tabs

Uriah Heep Chords & Tabs

Version: 2 Type: Bass Tab 0 ratings
1 star 2 stars 3 stars 4 stars 5 stars
comments

I Wanna Be Free Bass Tab

   
"I Wanna Be Free"
(From the album 'Look At Yourself' by Uriah Heep)
======================================================
Tabbed by Arvid Arngrimson <cross@net1fx.com>
======================================================
This song has great dynamics! Make sure you listen to
the actual recording of the album.  Have fun!
 
Intro:
G---------------------------------------------
D---------------------------------------------
A-----------5---------5---------5-------------
E---5-----3---5-----3---5-----3---0--5--0-----
 
G------------------------
D-------4----------------
A------------1---2-3-7-7-
E------------------------
 
G---------------------------------------------
D---------------------------------------------
A--------------2----4--5--5-5-7-7-8-7-8-10/12-
E-1---2--3---3--------------------------------
 
G------------------------------------------------
D------------------------------------------------
A------------------------------------------------
E--0--5--0---0--5--0---5--5--5--5-3---5--5--5--3-
  
G-----------------------------------------------
D-----------------------------------------------
A-----------------------------------------------
E--------5------5------5----3------5-------5----
 
G------------------------------------------
D------------------------------------------
A-----------------------------------------
E-----5----3----5----------5----------5---
   
G------------------------------------------------
D------------------------------------------------
A------------------------------------------------
E-5-------3--3--3--3-----------5-------5---------
(continues on same pattern till end of verse)
 
G------------------------------
D--------4---------------------
A-------------1--2--3---7---7--
E------------------------------
 
G----------------------------------------------
D----------------------------------------------
A----------------2--4---5--5-5-7-7-8-7-8-10/12-
E-1--2-----3---3-------------------------------
 
(solo same pattern as before)
   E A E E A E A   G A   G A     G     A   G A   G  
  |-----|-----|-----|-----|-----|-----|-----|-----|
   A     G     F#    E     G     D     E A E E A E
  |-----|-----|-----|-----|-----|-----|-----|-----|
 
G--------------------------------------
D-----4---4---4---4---2---2---2---2----
A--------------------------------------
E---2---2---2---2---0---0---0---0------
 
G---------------------7---7---7---7----
D----5---5---5---5---------------------
A-------------------5---5---5---5------
E--3---3---3---3-----------------------
 
OUTRO: (adlib around the root)
G--------------------------------------
D--------------------------------------
A--7-7-7-7--7-7-7-7--5-5-5-5--5-5-5-5--
E--------------------------------------
 
G--------------------------------------
D--------------------------------------
A--------------------3-3-3-3--3-3-3-3--
E--5-5-5-5--5-5-5-5--------------------
 
      / - slide up
      \ - slide down

[ Tab from: http://www.guitartabs.cc/tabs/u/uriah_heep/i_wanna_be_free_btab_ver_2.html ]
Comments