Uriah Heep - Blind Eye Chords & Tabs

 

Blind Eye Chords & Tabs

Uriah Heep Chords & Tabs

Version: 1 Type: Tab 0 ratings
1 star 2 stars 3 stars 4 stars 5 stars
comments

Blind Eye Tab

   
#----------------------------------PLEASE NOTE---------------------------------#
#This file is the author's own work and represents their interpretation of the #
#song. You may only use this file for private study, scholarship, or research. #
#------------------------------------------------------------------------------#

BLIND EYE (Hensley)

intro:

| Am | G | F | G | Am | G | F | G | Am...(drums fill in) 

Double lead guitar theme:
[ Tab from: http://www.guitartabs.cc/tabs/u/uriah_heep/blind_eye_tab.html ]
   Am            G       Am            D
E|-----0-3---2-0-2-----------0-3----7--5-------------|
B|-1h3-------------3-----1h3--------------7----------|
G|-------------------4-------------------------------| 1st lead 
D|---------------------------------------------------| guitar
A|---------------------------------------------------|
E|---------------------------------------------------|
 |                                                   |
 |                                                   |
E|---------------------------------------------------|
B|-------5----------------------5---8--7-------------|
G|---4-5-----7-5-7-4--------4-5-----------7----------|  
D|-7-----------------5----7--------------------------| 2nd lead
A|---------------------------------------------------| guitar
E|---------------------------------------------------|


   Am            G       Am      E       Am E Am      E       Am 
E|-----0-3---2-0-2---------------2-3------------------2-3-------|
B|-1h3-------------3-----5-3p1p0-----5-3------5-3p1p0-----5-3-1-|
G|-------------------4-------------------5-4--------------------| 1st lead 
D|--------------------------------------------------------------| guitar
A|--------------------------------------------------------------|
E|--------------------------------------------------------------|
 |                                                              |
 |                                                              |
E|--------------------------------------------------------------|
B|-------5-----------------------4-5------------------4-5-------|
G|---4-5-----7-5-7-4-----5-4p2p0-----5-4-2----5-4p2p0-----5-4-2-|  
D|-7-----------------5---------------------2--------------------| 2nd lead
A|--------------------------------------------------------------| guitar
E|--------------------------------------------------------------|

Fade to the very first part of the dbl guitar theme!
Comments