Urge Overkill - Heaven 90210 Chords & Tabs

 

Heaven 90210 Chords & Tabs

Urge Overkill Chords & Tabs

Version: 1 Type: Tab 0 ratings
1 star 2 stars 3 stars 4 stars 5 stars
comments

Heaven 90210 Tab

   
#----------------------------------PLEASE NOTE---------------------------------#
#This file is the author's own work and represents their interpretation of the #
#song. You may only use this file for private study, scholarship, or research. #
#------------------------------------------------------------------------------#
From: wdavis@decserv1.eecs.wsu.edu (Wyatt Davis - MME)

Hello out there.  This is by far the hardest song I've
ever tried on my own.  I think I have most of it right,
but why don't you try it out and post any corrections
you have.

Wyatt


"Heaven 90210"
by Urge Overkill

Tab by Wyatt Davis



Intro:

-------------------------0---4--2------0---
----2--4------4-2-0------0---4--2------0---
--4------------------2h4-1---4--3h4p3--1---
--4----------------------------------------
--2--------2-------------------------------
-------------------------------------------

-------------------------------------------------
-0-/4-4-2-0-2-2h4---4-2---2---0------------------
------------------------4---4--------------------
----------------------------------4-4-6-4-6-6-4--
----------------------------------2-2-2-2-2-2-2--
-------------------------------------------------


Verse:

  F#  E
--2---0-----
--2---0-----
--3---1-----
--4---2-----
--4---2-----
--2---0-----
[ Tab from: http://www.guitartabs.cc/tabs/u/urge_overkill/heaven_90210_tab.html ]
------------------------------------------------------------
------------------------------------------------------------
------------------------------------------------------------
------------------------------------------------------------
--4-4-6-4-4-4-6-4-4-4-6-4-4-4-6-----6-6-8-6-6-6-8-6-6-6-8-6-
--2-2-2-2-2-2-2-2-2-2-2-2-2-2-2-----4-4-4-4-4-4-4-4-4-4-4-4-


Chorus: 

        (When she comes to me and takes my hand
        When pain is all I know
        She gives me heaven with thrills, 90210)


--------------------------------------
--------------------------------------
---------4-2-1------------------------
-4-4-6-4-------4----------------------
-2-2-2-2-------2----------2h4-4-2-----
-----------------------2h4------------

--------------------------------------------------------------------
--------------------------------------------------------------------
-2-1---1-2-------2-1---1-2-----1/4---------4-2-1----------2h4-------
-----4-------2-------4-------2-------4-6-4-------4-----2h4----------
-----------0---0-----------0---------2-2-2----------2h4-------------
--------------------------------------------------------------------

------------------------------------------------------6-------------
--------------------------------------------------------------------
-2-1---1-2-------2-1---1-2-----1/4--1----4--1----/6b8---6p4/1-------
-----4-------2-------4-------2---------4----------------------------
-----------0---0-----------0----------------------------------------
--------------------------------------------------------------------



--------------------------------------------------------------
-0h4-4-2-0-2h4---4-2------------------------------------------
---------------------4-------------4-2-1----------------------
-------------------------4/6/4-----4-2-2----------------------
-----------------------2-------2---------2h4/9----------------
--------------------------------------------------------------
Comments