Urge Overkill - Girl Youll Be A Woman Soon Chords & Tabs

 

Girl Youll Be A Woman Soon Chords & Tabs

Urge Overkill Chords & Tabs

Version: 1 Type: Chords 0 ratings
1 star 2 stars 3 stars 4 stars 5 stars
comments

Girl Youll Be A Woman Soon Chords

   
##################################################################################
# This file is the author's own work and represents their interpretation of the  #
# song. You may only use this file for private study, scholarship, or research.  #
##################################################################################

Date: 23 Aug 1995 15:18:07 U
From: "Huntley Steve" 
Subject: Urge Overkill corrected lyrics

Here's the text of the file for Urge Overkill's "Girl You'll Be A Woman Soon"
with corrected lyrics and D sharp chord tab...



-- Intro ---
[ Tab from: http://www.guitartabs.cc/tabs/u/urge_overkill/girl_youll_be_a_woman_soon_crd.html ]
Girl,
|---------------------------|
|---------------------------|
|------3----2----0----------|
|-0-------------------------|
|---------------------------|
|---------------------------

-- Main Riff - Speedy Tempo --


CHORUS

- Piano Solo -

CHORUS

Chords Used:

   Gmin   F   C   D#
e---3-----1---0---3-------
B---3-----1---1---4-------
G---3-----2---0---3-------
D---5-----3---2---5-------
A---5-----3---3-----------
E---3---------------------


orig from
From: drizzt@clark.net (Drizz't)
Original By : Jonathan Eyre (scuw5@central.susz.ac.uk)
Updated By  : Craig (Drizzt@clark.net)
Comments