Urge - Brainless Chords & Tabs

 

Brainless Chords & Tabs

Urge Chords & Tabs

Version: 1 Type: Bass Tab 0 ratings
1 star 2 stars 3 stars 4 stars 5 stars
comments

Brainless Bass Tab

BrainLess
The Urge

Tabbed by John Ratarman (Dcrate@swbell.net)


Riff1
[ Tab from: http://www.guitartabs.cc/tabs/u/urge/brainless_btab.html ]
G--------------------------------------------------------------------------
D--------------------------------------------------------------------------
A--------------------------------------------------------------------------
E---3-000000---3-000000---4----3-000000---3-000000---5-------

Riff2

G---------------------------7--------------------
D---------------------------5---------------------
A-------------5---5------------------------------
E---0-0-00-----------7---------/5X555555----

Riff3

G----------------------------------
D----------------------------------
A-----------------------3333-----
E---3-000-X-3-000-------------

Comments