Urge - All Washed Up Chords & Tabs

 

All Washed Up Chords & Tabs

Urge Chords & Tabs

Version: 2 Type: Bass Tab 0 ratings
1 star 2 stars 3 stars 4 stars 5 stars
comments

All Washed Up Bass Tab

                          All Washed Up
                              The Urge


Tabbed by John Ratarman  (dcrate@swbell.net)


Riff1
[ Tab from: http://www.guitartabs.cc/tabs/u/urge/all_washed_up_btab_ver_2.html ]
G--------------------------------------------------
D--------------------------------------------------
A------3h4-3h4-3h4--------------4---3---------
E---2-------------------2-2-2--------------3-----


Riff2

G-------------------------------------
D-------------------------------------
A------4h3---------------------------
E---0---------0-2h3---0-3-0---1---

Bridge

E---2222-2222-2222-2222---
Comments