Urban Dub - Run Away Chords & Tabs

 

Run Away Chords & Tabs

Urban Dub Chords & Tabs

Version: 3 Type: Tab 0 ratings
1 star 2 stars 3 stars 4 stars 5 stars
comments

Run Away Tab

   
                     *****************************
                     *    RUNAWAY (guitarline)   *
                     *       by URBAN DUB        *
                     *****************************

transcribed by wowie dela cruz
e-mail : wowie_dc@yahoo.com

Tuning: B,F#,B,E,G#,C#

(N O T E: Listen to the song to get the correct tempo)

h - hammer on
p - pull off
/ - slide
x - dead string

INTRO:

  guitar 1
C#|---14-----------------------------------------|
G#|---15-----------------------------------------|
E |---16-----------------------------------------|
B |---17-----------------------------------------|
F#|----------------------------------------------|
B |----------------------------------------------|


  guitar 2
C#|----------------------|------------------------|
G#|----------------------|------------------------|
E |---11--11------11-----|--11--11------11--------|
B |----------12------12--|----------12------12----|
F#|----------------------|------------------------|
B |----------------------|------------------------|


   guitar 1
C#|----14-----------------------------------------|
G#|-----------------------------------------------|
E |-----------------------------------------------|
B |-----------------------------------------------|
F#|-----------------------------------------------|
B |-----------------------------------------------|


   guitar 2
C#|----------------------|------------------------|
G#|----------------------|------------------------|
E |--11--11------11------|--11--11----------------|
B |----------12------12--|----------12------------|
F#|----------------------|------------------------|
B |----------------------|------------------------|


   guitar 1
C#|-----------------------|-----------------------|
G#|-----------------------|-----------------------|
E |-7/14---------------16-|-11--------------------|
B |-----------------------|-----------------------|
F#|-----------------------|-----------------------|
B |-----------------------|-----------------------|


   guitar 2(distortion)
C#|-----------------------|-----------------------|
G#|-----------------------|-7h8p7-7h8p7-8-8p7-7h8-|
E |-----------------------|-----------------------|
B |-----------------------|-----------------------|
F#|-----------------------|-----------------------|
B |---4-4-0-4-0-4-4-0-4-0-|-----------------------|


guitar 1
C#|----------------------|------------------------|
G#|----------------------|------------------------|
E |-7/14--------------16-|-11---------------------|
B |----------------------|------------------------|
F#|----------------------|------------------------|
B |----------------------|------------------------|


   guitar 2
C#|----------------------|------------------------|
G#|----------------------|-7h8p7-7h8p7-8-8p7-7/10-|
E |----------------------|------------------------|
B |----------------------|------------------------|
F#|----------------------|------------------------|
B |--4-4-0-4-0-4-4-0-4-0-|------------------------|


   guitar 1
C#|-----------------------|-----------------------|
G#|-----------------------|-----------------------|
E |-7/14---------------16-|-11--------------------|
B |-----------------------|-----------------------|
F#|-----------------------|-----------------------|
B |-----------------------|-----------------------|


   guitar 2(distortion)
C#|-----------------------|-----------------------|
G#|-----------------------|-7h8p7-7h8p7-8-8p7-7h8-|
E |-----------------------|-----------------------|
B |-----------------------|-----------------------|
F#|-----------------------|-----------------------|
B |---4-4-0-4-0-4-4-0-4-0-|-----------------------|


guitar 1
C#|----------------------|------------------------|
G#|----------------------|------------------------|
E |-7/14--------------16-|-11h12p11---------------|
B |----------------------|------------------------|
F#|----------------------|------------------------|
B |----------------------|------------------------|


   guitar 2
C#|----------------------|-x--x-------------------|
G#|----------------------|-x--x-------------------|
E |----------------------|-x--x-------------------|
B |----------------------|-x--x-------------------|
F#|----------------------|-x--x--2----------------|
B |--4-4-0-4-0-4-4-0-4-0-|-x--x--2----------------|



VERSES:
[ Tab from: http://www.guitartabs.cc/tabs/u/urban_dub/run_away_tab_ver_3.html ]
     E
C#|----------------------------------------------|
G#|--7---7--------7--------7---7--------7--------|
E |----------7--------7-------------7-------7----|
B |----------------------------------------------|
F#|----------------------------------------------|
B |----------------------------------------------|
    Here...
    Fool...

C#|-----------7-----------------7----------------|
G#|--------8-----8-----8-----------8-----------8-|
E |-----9-----------9--------9--------9-----9----|
B |--9--------------------9--------------9-------|
F#|----------------------------------------------|
B |----------------------------------------------|
    I drove away...
    Damage inside...


REFRAIN:

                    w/ Fill 1
C#|-----------------|---------------------------|
G#|-----------------|---------------------------|
E |-----------------|---------------------------|
B |-5-5-5-5-5-5-5-5-|-5-5-5-5-5-5-5-5-5-5-5-5-5-|
F#|-3-3-3-3-3-3-3-3-|-3-3-3-3-3-3-3-3-3-3-3-3-3-|
B |-----------------|---------------------------|
   How do I?            How do I mend the wounds?

  Fill 1
C#|---------------|
G#|---7h8---------|
E |-------7-------|
B |---------------|
F#|---------------|
B |---------------|


CHORUS:
                                           w/ Fill 2
C#|-----------------------|------------------------|
G#|-----------------------|------------------------|
E |-----------------------|------------------------|
B |-----------------------|------------------------|
F#|-5-5-5-5-5-5-5-5-5-5-5-|-2-2-2-2-2-2-2-2-2-2-2--|
B |-5-5-5-5-5-5-5-5-5-5-5-|-2-2-2-2-2-2-2-2-2-2-2--|
    I need you                  I want you here


  Fill 2
C#|---2----------------------|
G#|-------2------------------|
E |--------------2h4p2--0----|
B |--------------------------|
F#|--------------------------|
B |--------------------------|

                 w/ Fill 3
C#|------------------------------------------------|
G#|------------------------------------------------|
E |------------------------------------------------|
B |-5-5-5-5-5-5-5-5-5-5-5-5-5-5-5-5-5--------------|
F#|-3-3-3-3-3-3-3-3-3-3-3-3-3-3-3-3-3--------------|
B |------------------------------------------------|
           Coz i'm afraid

   Fill 3
C#|---2----------------------|
G#|-------2------------------|
E |--------------2h4p2--0----|
B |--------------------------|
F#|--------------------------|
B |--------------------------|


REPEAT INTRO
REPEAT VERSES
REPEAT REFRAIN


CHORUS:
                                           w/ Fill 2
C#|-----------------------|------------------------|
G#|-----------------------|------------------------|
E |-----------------------|------------------------|
B |-----------------------|------------------------|
F#|-5-5-5-5-5-5-5-5-5-5-5-|-2-2-2-2-2-2-2-2-2-2-2--|
B |-5-5-5-5-5-5-5-5-5-5-5-|-2-2-2-2-2-2-2-2-2-2-2--|
    I need you                  I want you here
    I'm sorry                   I didn't mean to run

  Fill 2
C#|---2----------------------|
G#|-------2------------------|
E |--------------2h4p2--0----|
B |--------------------------|
F#|--------------------------|
B |--------------------------|

                 w/ Fill 3            (ending outro)
C#|-----------------------------------|-------------|
G#|-----------------------------------|-------------|
E |-----------------------------------|-------------|
B |-5-5-5-5-5-5-5-5-5-5-5-5-5-5-5-5-5-|---8--7------|
F#|-3-3-3-3-3-3-3-3-3-3-3-3-3-3-3-3-3-|---6--5--2---|
B |-----------------------------------|---------2---|
           Coz i'm afraid

   Fill 3
C#|---2----------------------|
G#|-------2------------------|
E |--------------2h4p2--0----|
B |--------------------------|
F#|--------------------------|
B |--------------------------|
  

  (2nd time chorus)
  guitar 1 (do chorus chords)
  guitar 2 (do repeatedly)
C#|---------------------------------------------|
G#|-/10-10-10-10-8-8-8-8-7-7-7-7----------------|
E |-----------------------------7-7-7-7---------|
B |---------------------------------------------|
F#|---------------------------------------------|
B |---------------------------------------------|
                 I'm sorry
                 I didn't mean to run
                 Run...

     Am       C
C#|---0---|---0---|
G#|---1---|---5---|
E |---2---|---5---|
B |---2---|---5---|
F#|---0---|---3---|
B |-------|-------|

   Am     C         
   Run away from home,
   Am               C             Am
   mad at the world no reasons at all
                 C
   I'm lost, my mind's gone
   Am                 C
   Everything can be whisked away.

REPEAT CHORUS
(ending outro)



comments or suggestion? feel free to contact me via email
Comments