Urban Dub - No Ordinary Love Chords & Tabs

 

No Ordinary Love Chords & Tabs

Urban Dub Chords & Tabs

Version: 1 Type: Bass Tab

No Ordinary Love Bass Tab

No Ordinary Love Bass Tab

Title: No Ordinary Love
Artist: Urbandub (Sade Original)
Album: Full Volume Compilation
Bassist: 'Lalay' Lim
Tabbed by: Francis Edward Borromeo

narinig lang to sa ipod, sobrang ganda ng melody nila.. easy bass line, pero sarap
tugtugin!
nilagay ko na ren kung anung time papasok ung tab para madali..
standard tuning, 4 string bass... enjoy!

Intro:

(0:10)
G--------------|
D----6--8------|
A--------------|
E--------------|

(0:11-0:35)
G----------------------------------6---------|
D----8-8--6--8--6--8-----8--6-6--8----8------|    8x
A--------------------------------------------|
E--------------------------------------------|


Verses:

(0:36-1:25, 2:05-2:49)
G----------------------------------6---------|
D----8-8--6--8--6--8-----8--6-6--8----8------|    2x (except ung 2nd part)
A--------------------------------------------|
E--------------------------------------------|
    I gave you all the love..


G--------------------------------------------------------|
D----8-8--6--8--6--8---4---4--4-----4-4-3-4-4---4---4--4-|  (bahala na kau dumiskarte..)
A--------------------------------------------------------|
E--------------------------------------------------------|
     ... you took my love..

(repeat 2x)

Refrain:
[ Tab from: http://www.guitartabs.cc/tabs/u/urban_dub/no_ordinary_love_btab.html ]
(1:26-1:51, 3:39-4:04)
G--------------------------------------|
D-----6---8-8-8---6---8-8-8------------|  (yan lang palagi, paulit-ulit)
A--------------------------------------|
E--------------------------------------|
    I keep crying...

Chorus:

(1:52-2:04, 2:50-3:01, 4:05-4:29---------------------|
G------------------------------------6---------------|
D-----6---8-8-8---6---8-8-------6--8-----8--4---6----|
A----------------------------------------------------|
E----------------------------------------------------|
    This is no ordinary love...

-------------------------------|
-----6---8-8-8---6---8-8-------| 2x
-------------------------------|
-------------------------------|


Interlude:

(3:02-3:38)
G-----------------------------------------------|
D---8-8-8-8---6--8--(2x)---4-4-4-4---3-4---(2x)-|
A-----------------------------------------------|
E-----------------------------------------------|

G----------10T--11T---------------10T--11T-------|
D---8-8-8-8---------(2x)---4-4-4-4----------(2x)-|    2x
A------------------------------------------------|
E------------------------------------------------|
     Keep crying you...

Outro:

(4:30-end)
G----------------------------------6---------|
D----8-8--6--8--6--8-----8--6-6--8----8------|   8x(except ung 2nd part)
A--------------------------------------------|
E--------------------------------------------|

end
G--------------|
D---8-8-6--8---|
A--------------|
E--------------|