Urban Dub - Come Chords & Tabs

 

Come Chords & Tabs

Urban Dub Chords & Tabs

Version: 1 Type: Tab 0 ratings
1 star 2 stars 3 stars 4 stars 5 stars
comments

Come Tab

   
urban dub cebu,philippines  homepage : www.urban-dub.tk
artist : Urban-dub
by : rhenee nucs
song : come
mail : rhenee@hotmail.com

di ko sure kung tama tong pinaggagawa ko.
-dedicated sa nagrequest sa yahoogroups.

Standard Tuning 
----------------------------\
---------------------------- \
-------7--------------------  \INTRO 2X
-9-9---7--7----7-\9-9-9-----  /
-7-7---5--7----7-\9-9-9----- /
-0-0---5--5----5-\7-7-7-----/
 E     D  A    A
----------------------------------------
----------------------------------------
--------------7-\8-8--------------------   Intro Riff
-9-9-\10-10---7-\8-8---7-7-\8-\9-9------
-7-7-\8--8----5-\6-6---7-7-\8-\9-9------
-0-0-------------------5-5-\8-\7-7------
 E            D        A       B          (repeat A couple of times)



verses
--------------------------------------------
--------------------------------------------
--------------------------------------------
-9-9-------7-7-\9-9-9----9-9----7-7-\9-9-9--
-7-7-------7-7-\9-9-9----7-7----7-7-\9-9-9--
-0-0-------5-5-\7-7-7----0-0----5-5-\7-7-7--
   ill come           with you             always  

[ Tab from: http://www.guitartabs.cc/tabs/u/urban_dub/come_tab.html ]
---------------------------------
---------------------------------
--------7-7-7---5-5-5--4-4--2-2--
-9-9-9--7-7-7---5-5-5--4-4--2-2--
-7-7-7--5-5-5---3-3-3--2-2--0-0--
-0-0-0---------------------------
my love

first chorus

--------------------
--------------------
--------------------
-9----7------7------  
-7----5------7------ 
-0----5------5------
 E    D      A
coz    you   right

repeat intro riff

repeat verses


chorus

 strum many times
---------------------------
---------------------------
-9-9-9-9-7-7-7-7-----------
-9-9-9-9-7-7-7-7-7-7-7-7---  
-7-7-7-7-5-5-5-5-7-7-7-7--- 
-0-0-0-0-5-5-5-5-5-5-5-5---
 E       D      A

chorus lick
--------------------------
--5--7--5-----------------
-----------6--5--7--5-----
-----------------------6--
--------------------------
--------------------------

bridge :

strum diz.
-------------------------
-------------------------
-6-------8---------------
-7-------9---------------
-7-------9---------------
-5-------7---------------
A         B
I know.. And so..

repeat the parts you need to repeat and thats it..
listen to the song and you'll know wat i mean
sorry kung may errors . wala kasi akong gitara nung sinulat ko to nasa skool ako
sa ama caloocan sa room CL2 katabi ko prof ko.. bored.
peace>!-Rhy
Comments