Urban Dub - Boy Chords & Tabs

 

Boy Chords & Tabs

Urban Dub Chords & Tabs

Version: 1 Type: Tab 0 ratings
1 star 2 stars 3 stars 4 stars 5 stars
comments

Boy Tab

              
                       BOY BY:URBAN DUB
                   transcribed by:freongang
              visit me at:freongang_81@yahoo.com
                    freongang_08@yahoo.com

intro:     X3
Eb|-------------------------  --------------------------|
Bb|-------------------------  --------------------------|
Gb|------2-2------2-2-2h3-2-  -----2-2-------2-2--2h3b--|
Db|-------------------------  --------------------------|
Ab|-------------------------  --------------------------|
Eb|-1-1-------1-1-----------  -1-1-------1-1------------|

           X3
Eb|-------------------------  --------------------------|
Bb|-------------------------  --------------------------|
Gb|------2-2------2-2-2h3-2-  -----2-2-------2-2--2h3b--|
Db|-------------------------  --------------------------|
Ab|-------------------------  --------------------------|
Eb|-1-1-------1-1-----------  -1-1-------1-1------------|
[ Tab from: http://www.guitartabs.cc/tabs/u/urban_dub/boy_tab.html ]
         X4
Eb|--------------------------|
Bb|--------------------------|
Gb|--------------------------|
Db|--5--5-5--3-3/6--6--------|
Ab|--3--3-3--1-1/4--4--------|
Eb|--------------------------|

 I'm victim of my own...
Eb|------------------------------------------------|
Bb|-(let ring)--4-5------4-5----4-5----4-5----4-5--|
Gb|--5---------------------------------------------|
Db|--5---------------------------------------------|
Ab|--3---------------------------------------------|
Eb|------------------------------------------------|

Eb|--------------------------------------------------|
Bb|--------------------------------------------------|
Gb|--------------------------------------------------|
Db|--------------------------------------------------|
Ab|--------------------------------------------------|
Eb|-0-2-1-2-1-2-1-2-1-2-1-2-1-2-1-2-1-2-1-2-1-2-1----|

 I'm boy like shinning on... X8 (is my lyrics are correct??) 
Eb|---------------------------|
Bb|---------------------------|
Gb|--5-5-5--3-3/6--6----------|
Db|--5-5-5--3-3/6--6----------|
Ab|--3-3-3--1-1/4--4----------|
Eb|---------------------------|
             <<<>>>
Comments