Urban Dub - Alert The Armory Chords & Tabs

 

Alert The Armory Chords & Tabs

Urban Dub Chords & Tabs

Version: 1 Type: Tab

Alert The Armory Tab

   
Alert the armory by urbandub

Tabbed by alvin lopez
acolyte_06@yahoo.com

if ur gonna use this tab please dont steal it and say that its ur own. naghirap akong
itab to kya please... wlang nakawan.. kng gagamitin nyo to at isesave..pkisabi sakin
sa www.tabulas.com/~clear_sky thanks.
pakirate narin! di siya ganun ka accurate.. pero kng gusto nyo lng tugtugin

errr... game! mayday mayday!

drop D tpos 1/2 step down

intro
riff1
e|-------------|
b|-------------|
g|----5--5-----|
d|---7--7------|
a|555--5--8750-|
d|-------------|

riff 2
e|--------|
b|--10--8-|
g|--9---9-|
d|88--88--|
a|88--88--|
d|88--88--|

riff3
verse
e|-------|
b|-------|
g|-------|
d|000-3~-|
a|000-3~-|
d|000-3~-|

do riff2 then riff 3 ulet

riff4
nothing can make this better..
e|---------------------|
b|---------------------|
g|---------------------|
d|00-3-0-3--8888-88-8-8|
a|00-3-0-3--88810810128|
d|00-3-0-3--8888-88-8-8|

listen to the song to get this riff. kxe pabago bago ung part sa may 8th fret

there is death in...
riff5
e|--|
b|--|
g|10| x7 ata downward strum
d|10|
a|8-|
d|--|
[ Tab from: http://www.guitartabs.cc/tabs/u/urban_dub/alert_the_armory_tab.html ]
chorus
riff 6
e|---------------------------------------------------------|
b|---------------------------------------------------------|
g|----------3/5--------------------------------------------|
d|000-3-0-3-3/5-888888------------------------------------3|
a|000-3-0-3-5/7-888888-do a couple of times tpos ung last-3|
d|000-3-0-3-----888888------------------------------------3|
sound the alarm...

do intro ulet once more again.

verse 2
riff7
e|-|
b|-|
g|-|
d|0|
a|0|
d|0|

riff8
e|--------|
b|--------|
g|--------| paulit ulit lng
d|--------|
a|10--10--|
d|--12--12|

it could have been easier now..
riff9
e|----------------------------------------------|
b|------------------------10101010------8-8-8-8-|
g|---------33333333-------9-9-9-9-------9-9-9-9-|
d|00000000-33333333---8888---------8888---------|x2
a|00000000-55555555---8888---------8888---------|
d|00000000------------8888---------8888---------|


e|--------|
b|--------|
g|--------|
d|0---8---|
a|0x8-8x8-|
d|0---8---|

then chorus

do this dun sa may mayday mayday!
e|---------------------|
b|---------------------|
g|986-6-986-98-9/11-98-|
d|---------------------|
a|---------------------|
d|---------------------|

this one is dedicated to all my friends and my band! weee! add nyo sa friendster!
karen_and_the_maggots@yahoo.com tnx!