Upside Down Cake - Living In Mormonville Chords & Tabs

 

Living In Mormonville Chords & Tabs

Upside Down Cake Chords & Tabs

Version: 1 Type: Tab 0 ratings
1 star 2 stars 3 stars 4 stars 5 stars
comments

Living In Mormonville Tab

Josh Rezek
here's a pretty sweet song from upside down cake it's extremely easy
and fun to play.
If you have any questions or such as that e mail me at avp69@msn.com
thanks...........
Have fun..................








[ Tab from: http://www.guitartabs.cc/tabs/u/upside_down_cake/living_in_mormonville_tab.html ]
Opening riff x4
----------------------------------------------------------
----------------------------------------------------------
----------------------------------------------------------
----------------------------------------------------------
--33-1110--33-1110-33-1110--------------------------------
--11------11-------11-------------------------------------

Chorus x4
----------------------------------------------------------
----------------------------------------------------------
----------------------------------------------------------
-----5-5-3-3-3-0-----5-5-3-3-3-0--------------------------
-3-3-3-3-1-1-1-0-3-3-3-3-1-1-1-0--------------------------
-1-1-------------1-1--------------------------------------

lead guitar
-------------------
-------------------
-------------------
--15-15-13-13-13-0- Lead repeat x4
-13-13-------------
Comments