Upo - Godless Chords & Tabs

 

Godless Chords & Tabs

Upo Chords & Tabs

Version: 2 Type: Tab 0 ratings
1 star 2 stars 3 stars 4 stars 5 stars
comments

Godless Tab

   
Artist: UPO
Album: No Pleasantries
Song: Godless - 4:14 (Albro/Weber)
Tuning: Drop D; DADGBe
Transcribed by Troy Bishop - tspencerb@hotmail.com

Note that UPO alternates between G and Cb at the end of verses
and chorus, as adjusted below. Have yourself a grand time playing
this; I always do.

*1st INTRO/VERSE*

e|-0-0-0-0-3-3-3-3-|-3-3-3-3-----------------|
B|-3/5-5-6-6-6-6-6-|-6-6-6-6-----------------|
G|-2/6-6-5-5-5-5-5-|-5-5-5-5-----------------|
D|-0-0-0-0-3-3-3-3-|-3-3-3-3-3/5-5-5-5-5-5-7-|
A|---------3-3-3-3-|-3-3-3-3-3/5-5-5-5-5-5-7-|
D|---------3-3-3-3-|-3-3-3-3-3/5-5-5-5-5-5-7-|

e|-0-0-0-0-3-3-3-3-|-3-3-3-3-----------------|
B|-3/5-5-6-6-6-6-6-|-6-6-6-6-----------------|
G|-2/6-6-5-5-5-5-5-|-5-5-5-5-----------------|
D|-0-0-0-0-3-3-3-3-|-3-3-3-3-3/5-5-5-5-5-5-3-| x3
A|---------3-3-3-3-|-3-3-3-3-3/5-5-5-5-5-5-3-|
D|---------3-3-3-3-|-3-3-3-3-3/5-5-5-5-5-5-3-|

*CHORUS*
e|-----------------|--------------------------|
B|-----------------|--------------------------|
G|-----------------|--------------------------|
D|-0-0-0-0-3-3-3-3-|-10-10-10-3/5-5-5-5-5-5-3-|
A|-0-0-0-0-3-3-3-3-|-10-10-10-3/5-5-5-5-5-5-3-|
D|-0-0-0-0-3-3-3-3-|-10-10-10-3/5-5-5-5-5-5-3-|
        ...need   ...godless

e|-----------------|--------------------------|
B|-----------------|--------------------------|
G|-----------------|--------------------------|
D|-0-0-0-0-3-3-3-3-|-10-10-10-3/5-5-5-5-5-5-7-|
A|-0-0-0-0-3-3-3-3-|-10-10-10-3/5-5-5-5-5-5-7-|
D|-0-0-0-0-3-3-3-3-|-10-10-10-3/5-5-5-5-5-5-7-|
        ...need
e|-----------------|--------------------------|
B|-----------------|--------------------------|
G|-----------------|--------------------------|
D|-0-0-0-0-3-3-3-3-|-10-10-10-3/5-5-5-5-5-5-3-|
A|-0-0-0-0-3-3-3-3-|-10-10-10-3/5-5-5-5-5-5-3-|
D|-0-0-0-0-3-3-3-3-|-10-10-10-3/5-5-5-5-5-5-3-|

e|-----------------|----------------------------|
B|-----------------|----------------------------|
G|-----------------|----------------------------|
D|-0-0-0-0-3-3-3-3-|-10-10---------------3--0---|
A|-0-0-0-0-3-3-3-3-|-10-10---------------3--0---|
D|-0-0-0-0-3-3-3-3-|-10-10---------------3--0---|
		  ...godless	    

*1st BRIDGE*
e|-----------------|--------------------------|
B|---5-6----5-6----|---5-6--------------------|
G|--5------5-------|--5-----------------------|
D|-0------3--------|---------3/5-5-5-5-5-5-7--|
A|-----------------|-3-------3/5-5-5-5-5-5-7--|
D|-----------------|---------3/5-5-5-5-5-5-7--|
...to fall...

e|-----------------|--------------------------|
B|---5-6----5-6----|---5-6--------------------|
G|--5------5-------|--5-----------------------|
D|-0------3--------|---------3/5-5-5-5-5-5-3--|
A|-----------------|-3-------3/5-5-5-5-5-5-3--|
D|-----------------|---------3/5-5-5-5-5-5-3--|

*2ND VERSE*
[ Tab from: http://www.guitartabs.cc/tabs/u/upo/godless_tab_ver_2.html ]
e|-0-0-0-0-3-3-3-3-|-3-3-3-3-----------------|
B|-3/5-5-6-6-6-6-6-|-6-6-6-6-----------------|
G|-2/6-6-5-5-5-5-5-|-5-5-5-5-----------------|
D|-0-0-0-0-3-3-3-3-|-3-3-3-3-3/5-5-5-5-5-5-7-|x4
A|---------3-3-3-3-|-3-3-3-3-3/5-5-5-5-5-5-7-|
D|---------3-3-3-3-|-3-3-3-3-3/5-5-5-5-5-5-7-|

*2nd BRIDGE*
e|-----------------|-----------------------|
B|---5-6----5------|---5-6-----------------|
G|--5------5-5-----|--5--------------------|
D|-0------3--------|-------3/5-5-5-5-5-5-7-|
A|-----------------|-3-----3/5-5-5-5-5-5-7-|
D|-----------------|-------3/5-5-5-5-5-5-7-|

e|-----------------|------------------|
B|---5-6----8-6----|---5-6------------|
G|--5------5-------|--5---------------|
D|-0------3--------|-5-------7-5--5-3-|
A|-----------------|---------7-5--5-3-|
D|-----------------|---------7-5--5-3-|

e|-----------------|--------------------------|
B|---5-6----5-6----|---5-6------5-6-----------|
G|--5------5-------|--5--------5--------------|
D|-0------3--------|--------------------------|
A|-----------------|-3------------------------|
D|-----------------|---------5----------------|
...still...		  ...gone...

e|-----------------|--------------------------|
B|---5-6----5-6----|---5-6------5-6-----------|
G|--5------5-------|--5--------5----5---------|
D|-0------3--------|--------------------------|
A|-----------------|-3------------------------|
D|-----------------|---------5----------------|

e|-----------------|--------------------------|
B|---5-6----5-6----|---5-6------5-6-----------|
G|--5------5-------|--5--------5----5---------|
D|-0------3--------|--------------------------|
A|-----------------|-3------------------------|
D|-----------------|---------5----------------|

e|-----------------|--------------------------|
B|---5-6----5-6----|---5-6--------------------|
G|--5------5-------|--5-----------------------|
D|-0------3--------|---------3/5-5-5-5-5-5-7--|
A|-----------------|-3-------3/5-5-5-5-5-5-7--|
D|-----------------|---------3/5-5-5-5-5-5-7--|

1st VERSE
I'm checkin' into leaving,
yeah I'm folding,
I'm tired of breaking down and shaking this life around,
I'm tired of praying,
yeah I'm tired of trying myself,
I'm tired of being taken all the way.

CHORUS
And I don't need to be godless, but I am.
and I don't need my head deep in all my problems,
and I don't need your hand on the gun, yeah
and I don't need to say I'm godless with nowhere to fall.
yeah, I'm all ready to fall.

1st BRIDGE

2nd VERSE
Day by day, I'm like a paper puppet and I'm stumbling 'round,
I make it on my brain,
and I'm in big trouble, big trouble
I still gotta breathe, oh yeah
Like my shame, this'll all go down,
God damn me last for sure,
and I believe,
I believe I don't belong here.

CHORUS
And I don't need to get my head kept in,
and I don't need to be another lost soul who can't find home, and I don't need
to get my face dragged down in the muddy water
and I don't need to say I'm godless anymore.

2nd BRIDGE
Still I'm gone,
Still I'm on the road,
Still I'm on the brink of the edge,
Still I, still I'm feeling dead,

CHORUS
I don't need to be godless, but I am
and I don't need to be another lost soul who can't find home,
and I don't need your hand on the gun,
and I don't need to say I'm godless anymore.
Comments