Uphill Gardeners - Wet Dreams Chords & Tabs

 

Wet Dreams Chords & Tabs

Uphill Gardeners Chords & Tabs

Version: 1 Type: Bass Tab 0 ratings
1 star 2 stars 3 stars 4 stars 5 stars
comments

Wet Dreams Bass Tab

Sweet Dreams
G|---------------------------------------|
D|---------5---6---5---------------------|
A|-----3-3---3---3-----------------------|
E|---------------------------------------|

G|---------------------------------------|
D|---------------------------------------|
A|--------6/8--------5/6-----------------|
E|---3-3--------3-3----------------------|
Repeat these two quite a few times, then the distorted chorus comes in.
I'm not sure on this part, but it's something like this, or so it sounds to
me, kinda hard to tab from the audio on a bootlegged video.  Know what imean?
G|----------5-5-5------------------------|
D|--5-5-5---5-5-5------------------------|
A|--5-5-5---3-3-3------------------------|
E|--3-3-3---3-3-3------------------------|
[ Tab from: http://www.guitartabs.cc/tabs/u/uphill_gardeners/wet_dreams_btab.html ]
This isn't the exact number,but you get the idea. Listen to it and play
along.  I'm pretty sure it is those two chords, but hey, i couldn't hear it
too well.  When the "Dope Hat" single comes out i'll complete it.  These
two chords may also be in backwards order, i don't remember which wasfirst.
and now the solo...sorry it took so long to put in here...i was too lazy to
mail it in.

^=bends
e|-------------------------------------------------|
B|-------------------------------------------------|
G|----6-8-6---8^8^8^-------------------------------|
D|-6-8-----8-6------665-3-55--333-1-11-333-555-8-5-|
A|-------------------------------------------------|
E|-------------------------------------------------|

e|---------------------------|----------------------|
B|--------------------55-8^--|--6^----------8^------|
G|--------------55-7^------5-|-----5--7^-5------5---|
D|--99-11-11^-9--------------|----------------------|
A|---------------------------|----------------------|
E|---------------------------|----------------------|

e|-----------------|
B|-----------------|
G|-----------------|
D|------5-6--------|
A|--3-3--3-3-------|
E|-----------------|  
Comments