Uphill Gardeners - Macys Gay Parade Chords & Tabs

 

Macys Gay Parade Chords & Tabs

Uphill Gardeners Chords & Tabs

Version: 1 Type: Bass Tab 0 ratings
1 star 2 stars 3 stars 4 stars 5 stars
comments

Macys Gay Parade Bass Tab

macy's gay paradeuphill gardenersgardening uphill
tabbed by bazz, member of the bass tab archive tabbing army
email me if you need a tab, i'll see what i can dobilliejoe2000@hotmail.com
i've seen quite a few crap attemps at this song, so i thought
i'd do it myself, it's probebly still wrong but sounds great,
and to be extra nice, i even tabbed the bass solo i play in
the interlude, which was nice of me wasn't it.

guitar intro

bass comes in at the second versemain verse

G:-------------------------------------------------------------------------/
D:----------------------4----------------------22-22--4-44--4-44-then back-/
A:-22--2-22--2-22--2-22-----------------------2--2---------------to 2------/
E:-----------------------44--4-44--4-44--4-44------------------------------/

pre chorus
G:-------------------------------------------/
D:--22--2-22--2-22--2-22--2-44--4-44-4-44-4--/
A:-4-----------------------------------------/
E:-------------------------------------------/
[ Tab from: http://www.guitartabs.cc/tabs/u/uphill_gardeners/macys_gay_parade_btab.html ]
now go back to main verse and play twicenow play the pre chorus utill the :
chorus (my own)
G:--------------------------------------------------------------------/
D:---4-2--------4-2-----------4-2-1---2------------2-1------------2---/
A:-2-----4-2-22-------4-2---2-------4---4-2-22-2-2-----2-11-1-2-4---4-/
E:------------------2-----4-------------------------------------------/

bass fill
G:------------------------/
D:----------------2---1---/
A:-22-2-22-2-22-2---0---0-/
E:------------------------/

interlude solo (my own) this is optionalplay this right after the bass fill

G:------------------------------------------------------------------/
D:------------------------------------------------------------------/
A:---9-7-6-7-6---6-7-9-7-6-----6------6-4-6-7-6-4-6-7-6-4---6-------/
E:-7-----------7-----------9-7---7--4---------------------7---7-6-4-/

cont...                                    2nd time end

G:---------------------------------6-8-6--/
D:---------------------------4-6/8--------/ 
A:---2-4-2-4/6-4-2-4---4-4/6--------------/          
E:-0-----------------2--------------------/       
                          
cont... (2nd time)
G:-------------------------------4-6-4--/
D:-------------4-6-4---------4-6--------/
A:---2-4-2-4/6---------2-4/6------------/
E:-0-----------------2------------------/
Comments