Uphill Gardeners - Im Goin Down Chords & Tabs

 

Im Goin Down Chords & Tabs

Uphill Gardeners Chords & Tabs

Version: 1 Type: Tab 0 ratings
1 star 2 stars 3 stars 4 stars 5 stars
comments

Im Goin Down Tab

   
------------------------------------------------------------
			ITS GOING DOWN
------------------------------------------------------------
		UPHILL GARDENERS - I'M GOIN' DOWN
------------------------------------------------------------

Tabbed by colorado25


		


NOTES: Drop tune to D

* Harmonic



INTRO
|------------------------------------------------------
|------------------------------------------------------
|------------------------------------------------------
|-7-0-2-0--2-****-7-0-2--44-44---7-0-2-0--2-****-202-2-
|-7-0-2-0--2-****-7-0-2--44-44---7-0-2-0--2-****-202-2-
|-7-0-2-0--2-****-7-0-2--44-44---7-0-2-0--2-****-202-2-
[ Tab from: http://www.guitartabs.cc/tabs/u/uphill_gardeners/im_goin_down_tab.html ]
PART A				VARIATION A
|-----------------------------	|--------------------
|-----------------------------	|--------------------
|-----------------------------	|--------------------
|-7-0-2-0--2-****-2-0-2--44-44-	|-7-0-2-0--2-****-2-2-
|-7-0-2-0--2-****-2-0-2--44-44-	|-7-0-2-0--2-****-2-2-
|-7-0-2-0--2-****-2-0-2--44-44-	|-7-0-2-0--2-****-2-2-

BRIDGE 				VARIATION B
|---------------------		|------------
|---------------------		|------------
|---------------------		|------------
|-7-0-2-0--2-----44-44-		|-7-0-2-0--2-
|-7-0-2-0--2-----44-44-		|-7-0-2-0--2-
|-7-0-2-0--2-----44-44-		|-7-0-2-0--2-

VARIATION C
|-----------------------
|-----------------------
|-----------------------
|-7-0-2-0--2-----2-2-44-
|-7-0-2-0--2-----2-2-44-
|-7-0-2-0--2-----2-2-44-


PLAY IT LIKE THIS:

INTRO
PART A x3
VARIATION A
BRIDGE x7
VARIATION B
PART A x 4
BRIDGE x4
VARIATION C
BRIDGE x3
PART A x6
VARIATION B x2
BRIDGE x1
VARIATION A
PART A x4
BRIDGE x4
VARIATION B
Comments