Uphill Gardeners - If Youre Ready Lets Do It Chords & Tabs

 

If Youre Ready Lets Do It Chords & Tabs

Uphill Gardeners Chords & Tabs

Version: 1 Type: Bass Tab 0 ratings
1 star 2 stars 3 stars 4 stars 5 stars
comments

If Youre Ready Lets Do It Bass Tab

Band Name - Uphill Gardeners
Song Title - If You're Ready, Lets Do It

tabbed by - swales (who's lights are on but no-one's home ;)

h= hammer on  p= pull off
*= dead note

Intro

G------------7--|--7----------------------|----
D--------7------|-----7-------------------|---- Play this twice
A----5----------|-------*5---------5------|----
E---------------|------------5--7-----7---|----

Pre-Verse

G------------------|-------------|--------5-h-7-p-5--------|
D------------------|-------------|-----5------------5------|
A--5-5---5---------|--7----------|--3------------------4---|
E------5----5-h-7--|-----7---*0--|-------------------------|

G--------7-h-9-p-7---------|
D-----7-------------7------|
A--5-------------------7---|
E--------------------------|

Verse
[ Tab from: http://www.guitartabs.cc/tabs/u/uphill_gardeners/if_youre_ready_lets_do_it_btab.html ]
G----------------------|-------------------|-----------------------|
D----------------------|-------------------|-----------------------|
A--8-p-7--5---5---5--5-|--7--5---5--7------|--------------*2-2---5-|
E-----------7---7------|-------7-------0---|-0-2-2--*5-5-----------|

G------------------|
D------------------|
A------------------|
E--(0-0)---5-5--5--|

The Chorus

G------------------------|--------------------------*10---|
D-------9-7--------------|-------------------10-12--------|Played twice
A-----------9-8-7--------|---------10-11-12---------------|  then...
E--7-7-------------10-7--|--10-10-------------------------|

G------------------------|------------------------------|
D-------9-7--------------|---------9-11-*11-11-9--------|
A-----------9-8-7--------|------11---------------11-----|
E--7-7-------------10-7--|-9-9--------------------------|

G-----------------------------|-------------------------|
D-----------10--14--*12--*10--|-------9-10-11-----------|
A--------12-------------------|-------------------------|
E--10-10----------------------|--9-9-------------10---9-|(over trumpets
                                                           and/or sax)
Comments