Uphill Gardeners - Homo Chords & Tabs

 

Homo Chords & Tabs

Uphill Gardeners Chords & Tabs

Version: 1 Type: Tab 0 ratings
1 star 2 stars 3 stars 4 stars 5 stars
comments

Homo Tab

   
Author/Artist:Uphill Gardeners Title:Homo Album:Gardening Uphill
Transcribed by: luke lundbergEmail: kane_72@hotmail.com
ass uses a 7 string guitar, but in this song he uses a 6 string guitar tuned l
ike this1 and a half steps down + dropped d = B F# B E G# C#
------------------------------------------------------------------------------
-3-3-3-3-3-3-3---3---3---3---3---3-3-3-3-3-3-3---3---3---3---3----------------
---------------6---6---6---6--6----------------6---6---6---6---6--------------
------------------------------------------------------------------------------
------------------------------------------------------------------------------
------------------------------------------------------------------------------
   intro                                                                      
------------------------------------------------------------------------------
------------------------------------------------------------------------------
------------------------------------------------------------------------------
-0-2-0-2-0-2-3-2---0-2-0-2-0-2-0-2-6-5--0-2-0-2-0-2-3-2---0-2-2-2-2-6-6-5-----
-0-2-0-2-0-2-3-2---0-2-0-2-0-2-0-2-6-5--0-2-0-2-0-2-3-2---0-2-2-2-2-6-6-5-----
-0-2-0-2-0-2-3-2---0-2-0-2-0-2-0-2-6-5--0-2-0-2-0-2-3-2---0-2-2-2-2-6-6-5-----
  fill                                                                        
------------------------------------------------------------------------------
------------------------------------------------------------------------------
------------------------------------------------------------------------------
------------------------------------------------------------------------------
------------------------------------------------------------------------------
-0-2-0-2-0-2-3-2---0-2-0-2-0-2-0-2-6-5--0-2-0-2-0-2-3-2---0-2-0-2-0-2-3-2-----
 p.m   verse                                                                  
------------------------------------------------------------------------------
------------------------------------------------------------------------------
------------------------------------------------------------------------------
-2-2--2-2-2-2--2-2-2-2--2-2-2-2--2-2-1-1--1-1-1-1--1-1-1-1--1-1-1-1--1-1-1----
-2-2--2-2-2-2--2-2-2-2--2-2-2-2--2-2-1-1--1-1-1-1--1-1-1-1--1-1-1-1--1-1-1----
-2-2--2-2-2-2--2-2-2-2--2-2-2-2--2-2-1-1--1-1-1-1--1-1-1-1--1-1-1-1--1-1-1----
 chorus    that's it, just go back 2 fill then verse then chorus then intro!
[ Tab from: http://www.guitartabs.cc/tabs/u/uphill_gardeners/homo_tab.html ]
Comments